Chordie logo

Three Flights Up   Yellowcard



THREE FLIGHTS UP/ YELLOWCARD
Ryan Key, Sean Mackin, Pete Mosely

Drop D Tuning:
DADGBE

Really Easy song... Good for people just starting to play!! Listen
to the recording here:
http://www.youtube.com/watch?v=DVCuSQoP5wU
I know, it's a video of a whale... lol. It was the best quality recording. You don't 
to watch the whale. Though it is kind of cute...
Btw, this is my first tab. But as i'm typing i'm looking at a sheetmusic score of the 
sooo... i hope there aren't too many mistakes. But if there are... yell at me!

INTRO: Piano/gtr 1 only:
| 2-2-2-2-3-0-0-0-0-2--------0-|
| -3-3-3-----3-3-3----3-3-3-3--|
| ---------------------4-4-4---|
| -----------------------------|
| -----------------------------|
| -----------------------------|

2nd Segment: Strings/Gtr 2:
|---0--2-0-0----|
|--3-2--------3-|
|-----2---------|
|-4-------------|
|---------------|
|---------------|

2nd Segment: Piano/ Gtr 1:
|2-2-2-2-3-0-0-0-0-0-2-------0-|
|-3-3-------3-3-3-3---3-3-3-3--|
|----------------------4-4-4---|
|0---0-----0-----0----0---0----|
|------------------------------|
|------------------------------|


3rd Segment: Strings/ Gtr 2 only:
|--0--0--2-3-5-10-9-|
|-3-2--2------------|
|2---2--2-----7-----|
|-------------------|
|-------------------|
|-------------------|

4th Segment: Strings/ Gtr 2:
|7---10-9-9-10-7-------|
|-10------------10---7-|
|---9-------------7-6--|
|----------------------|
|----------------------|
|----------------------|

4th Segment: Piano/ Gtr 1:
|-------------------------0-2-2-2-2-3-|
|7-7-7-7-8-5-5-5-5-3-3-3-3---3-3-34---|
|-7-7-7-7-7-7-7-7-7-4-4-4-------------|
|9-9-9-9---7-7-7-7-5-5-5----0-0-4-----|
|-------------------------------------|
|-------------------------------------|

5th Segment: Strings/ Gtr 2:
|---------5-7-7-10-9-|
|5-5-5-8-7-----------|
|----------7---------|
|--------------------|
|--------------------|
|--------------------|

5th Segment: Piano/ Gtr 1:
|0-0-0-0--2-------0---------0-0-0-0-2-|
|-3-3-3-3--3-3-3-3-7-7-7-7-8-3-3-3----|
|0-0-0-0----4-4-4---7-7-7---4-4-3-3---|
|2-2-2-2------------------------------|
|----------2-2-2-2--------------------|
|------------------5-5-5-5--4---4-----|

6th Segment: Strings/ Gtr 2:
|10-12-14--5-5-----5-5-3-2-----5-3-|
|---------7---5-3-5-------5-3-3----|
|--------7-------------------4-----|
|----------------------------------|
|----------------------------------|
|----------------------------------|

6th Segment: Piano/ Gtr 1:
|-------0-2-2-2-2-2-3-0-0-0-0-2-------0-|
|3-3-3-3---3-3-3-------3-3-3---3-3-3-3--|
|-4-4-4-------------------------4-4-4---|
|---------------0-----0---0----0---0----|
|---------------------------------------|

|---------0-----------------------------|

7th Segment: Violin/ Gtr 2:
|5-5-5-5-5---5-|
|---------3-5--|
|--------------|
|--------------|
|--------------|
|--------------|

7th Segment: Piano/ Gtr 2:
|2-2-2-2-3-0-0-0-2----------|
|-3-3-3-----3-----3-3-3-3-2-|
|------------------4-4-4----|
|0---0--0--0------0---5-----|
|-----------------------0---|
|---------------------------|

8th Segment/ Ending note:
D-Chord on both Guitars :)
Pretty easy, don't think it realllyy needs tabbing.

Ok, so thats it.
There are only 2 parts thoughout the whole thing... so it makes a pretty impressive 
esp. for beginners. I wish there was a way to put up violin tabs, but there isn't... so this 
have to do!


Important: The song above is NOT stored on the Chordie server. The original song is hosted at www.guitaretab.com. Chordie works as a search engine and provides on-the-fly formatting. Chordie does not index songs against artists/composers will. To remove this song please click here.

This song is displayed as text-only. Transposing and tuning is only available for chordpro-songs.

Login - add to songbook

Rating click stars to rate

Layout
Accuracy

SHARE PAGE  

You need to log in to post comments