"yes"; ?> by Unknown - guitar chords, guitar tabs and lyrics - chordie
 AmGAmG
--17-----15-12----13-12?---------17-20-19-17---15-----------------------
-----------------------15-----?20-------------------17----18-17---15----
------------------------------------------------------------------------
------------------------------------------------------------------------
------------------------------------------------------------------------
------------------------------------------------------------------------


 DmFC
------------------------------------13---15--------20------24-----------
--15-17-15-13?10-------15-17-13-17--------------------------------------
------------------------------------------------------------------------
------------------------------------------------------------------------
------------------------------------------------------------------------
------------------------------------------------------------------------


 AmGAmG
--17-----15-12----13-12?------------17-20-19-17---15--24----25-24---22--
-------------------------15-----?20-------------------------------------
------------------------------------------------------------------------
------------------------------------------------------------------------
------------------------------------------------------------------------
------------------------------------------------------------------------


 DmFC
------------------------------------13---15-------12--------------------
--15-17-15-13?10-------15-17-13-17---------------------13---------------
---------------------------------------------------------------12-------
------------------------------------------------------------------------
------------------------------------------------------------------------
------------------------------------------------------------------------


(Am)Soon oh (G)soon the light

(Am)Pass within and soothe the (G)endless night

(Dm)And wait here for you

(F)Our reason to be (C)here

(Am)Soon oh (G)soon the time

(Am)All we move to gain will (G)reach and calm

(Dm)Our heart is open

(F)Our reason to be (C)here

(Dm)Long ago, set into (C)rhyme

INTERLUDE 1 :

 CAmDm/FG
--------------------------------13-13-13-13-13 / 12--24-24-24-24-24 / 22
-17-17-17/15--13-13-13-13-13/12-----------------------------------------
------------------------------------------------------------------------
------------------------------------------------------------------------
------------------------------------------------------------------------
------------------------------------------------------------------------


(Am)Soon oh (G/B)soon the light

(Am/C)Ours to shape for all time, (G/D)ours the right

(Dm/F)The sun will lead us

(F/A)Our reason to be (C)here

INTERLUDE 2 :

 AmGAmG
-17-----15-12----13-12?15-------17-20-19-17---15------------------------
----------------------------?20-------------------17----18-17---15------
------------------------------------------------------------------------
------------------------------------------------------------------------
------------------------------------------------------------------------
------------------------------------------------------------------------


 DmFDm
------------------------------------13 / 22--------------20------
--15-17-15-13?10-------15-17-13-17-------------------------------
-----------------------------------------------------------------
-----------------------------------------------------------------
-----------------------------------------------------------------
-----------------------------------------------------------------


 CDmCGBb
--17----18-17?15------20-22-25-24-22-20?17-18-17?15----15-17-15-13-10--
?----------------------------------------------------------------------
-----------------------------------------------------------------------
-----------------------------------------------------------------------
-----------------------------------------------------------------------
-----------------------------------------------------------------------


 GmF/AGm
-15-17-13-17-18  /  27----------------------------------15-18-17-15-----
-------------------------------18---13---16?15?13----18--------------18-
------------------------------------------------------------------------
------------------------------------------------------------------------
------------------------------------------------------------------------
------------------------------------------------------------------------


 FCmEbAm
---23-22-20--------20-22-20-18 / 13----------------11----12---------
-15------------------------------------13-15-11-15------------------
--------------------------------------------------------------------
--------------------------------------------------------------------
--------------------------------------------------------------------
--------------------------------------------------------------------


(Am)Soon oh (G/B)soon the light

(Am/C)Ours to shape for all time, (G/D)ours the right

(Dm/F)The sun will lead us

(F/A)Our reason to be (C)here

INTERLUDE 3 :

 CAmFG
------------------------------------------------------------------------
-17-17-17-17-17/15--13-13-13-13-13/12--10-10-10-10-10/8-----------------
----------------------------------------------------------9-9-9-9-9/7---
------------------------------------------------------------------------
------------------------------------------------------------------------
------------------------------------------------------------------------


 CAm/DFG
24-24-24-24-24/22--20-20-20-20-20/19------------------------------------
-------------------------------------18-18-18-18-18/17-17-17-17-17-17/15
------------------------------------------------------------------------
------------------------------------------------------------------------
------------------------------------------------------------------------
------------------------------------------------------------------------


 CAm/DFAb
12-12-12-13/15-15--15-15-15-15-15/20--20-20-20-20-20-20/22----------------------
-----------------------------------------------------------18-18-18-18-18/16-16-
--------------------------------------------------------------------------------
--------------------------------------------------------------------------------
--------------------------------------------------------------------------------


 CmAbCm
----------------------------------------------------------------------------
-/6-6-6-6-6/4-4/8--18-18-18-18-18/16-16/20----18/20--16/18?15/16?13/15---8--
----------------------------------------------------------------------------
----------------------------------------------------------------------------
----------------------------------------------------------------------------
----------------------------------------------------------------------------


 AbFm/C
----------------------------16-15-16-----15/13----18---16-15?13------11-----
---18-18-18-18-18/16-16--------------13-------------------------------------
----------------------------------------------------------------------------
----------------------------------------------------------------------------
----------------------------------------------------------------------------
----------------------------------------------------------------------------


OUTRO : (Eb/C) (B/C) (Cm) (Fm/C) (Ab/C) (Cm) (Fm/C) (Cm)

If you are into prog rock :

-please check out

.YES "Close to the Edge"

.GENESIS "Supper's ready"

-Coming soon

.GENESIS "Anyway"

.GENESIS "Home by the sea" corrected

.KING CRIMSON "One time"

.KING CRIMSON "Starless" corrected

.ELP "Still... you turn me on"

-or you can send me Emails to chat about our favorite bands

My Email : raphael.chaise@ceram.fr


Ab Am Am/D Bb C Cm Dm Dm/F Eb F Fm/C G Gm
variations - click chord images
Transpose chords:
Tuning:
Cool service:
View: Size:
A  A  A
Rating:
Layout:
  • Currently 2.7/5 Stars.
  • 1
  • 2
  • 3
  • 4
  • 5
 
Accuracy:
  • Currently 3.2/5 Stars.
  • 1
  • 2
  • 3
  • 4
  • 5
 
click stars to rate
Chordie recommends:
Check out JamPlay.com for online video guitar lessons
Songbook:
Login to add this song to your songbook
Support the artist
Preview/buy this song
MSN Music
Why this non-profit ad?

 
login to add comments/video/corrections