Guitar Tabs, Chords and Lyrics


And You And I   Yes



                                     Yes
                                And You And I
Tab Written By Jason Albrecht
Lyrics And Song By : Yes
 song starts with harmonics
E------------------------------------------------5-----7--12----7-----|
B------------------------------------------7--------------12----7-----|
G---------------------------------7-----------------------12----7-----|
D------------------------7-----5--------9-----------------12----7-----|
A-----------7--------5------------------------------------12----7-----|
E---------------7-----------------------------------------12----7-----|

E--------------------------------------------------------------12-------|
B-------------12-------------------------------------12-----------------|
G---------12------------------------------12----------------12----------|
D-----12------------------------12---------------12---------------------|
A---------------------------12--------12--------------------------------|
E-----------------------12----------------------------------------------|

E------------------------------------------5--7---------------------------|
B------------------------------------7----------------5--7-----------7----|
G------------------------------5--7----------------5--------------5-------|
D---------------------5--7-------------------------------------5----------|
A------------5--7---------------------------------------------------------|
E---5--7------------------------------------------------------------------|

E-------------------------7------|
B----------------------7---------|
G-------------------5------------|
D-----7--------------------------|
A--------7-----7-----------------|
E-----------5--------------------|

E------------------5---------------|--------------5--------------------------|
B------8---7---0---------------7---|---8---7---0------------8----------------|
G------0---------------------------|---0-------------------------------------|
D----------------------------------|-------------------7---------------------|
A---------------------------7------|-------------------0---------------------|
E---------------------------0------|-----------------------------------------|

E---------------5---------------------|
B----8---7---0----------7-------------|
G----0--------------------------------|
D----------------------------7--------|
A------------------7---------0--------|
E------------------0------------------|

E---22222--77----9--9--9--9--9--77---|
B---33333--88---10-10-10-10-10--88---|
G---22222--77----9--9--9--9--9--77---|
D---00000--00----0--0--0--0--0--00---|
A---00000--00----0--0--0--0--0--00---|
E---00000--00----0--0--0--0--0--00---|

continue these chords through rest of song. the last post for this song was wrong for 


Important: The song above is NOT stored on the Chordie server. The original song is hosted at www.guitaretab.com. Chordie works as a search engine and provides on-the-fly formatting. Chordie does not index songs against artists'/composers' will. To remove this song please click here.

This song is displayed as text-only. Transposing and tuning is only available for chordpro-songs.

Login - add to songbook

Rating click stars to rate

Layout
Accuracy

SHARE PAGE  




You need to log in to post comments