Chordie logo

Leonardo   Yngwie Malmsteen



half step			Leonardo
			      Yngwie Malmsteen

D#-------------------17----20----17-20-17----------17----------|
A#----------------17----17----17----------------17-------------|
F#-------------17----------------------------17----------------|
C#----------19----------------------------19-------------------|
G#-------19----------------------------------------------------|
D#-17-20-------------------------------------------------------|

                Part A                      Part B
D#-7-0-4-0-10-0-7-0-8-0-5-0-12-0-8|-12-9---------9-12-9---------|
A#--------------------------------|------10---10--------10---10-|
F#--------------------------------|---------9--------------9----|
C#--------------------------------|-----------------------------|
G#-------------2X's---------------|-----------------------------|
D#--------------------------------|-----------------------------|

D#-13-10----------10-13-10----------10-14-11----------11-14-11-|
A#-------10----10----------10----10----------13----13----------|
F#----------10----------------10----------------14-------------|
C#-------------------------------------------------------------|
G#-------------------------------------------------------------|
D#-------------------------------------------------------------|
                                                 Do part A
D#----------11-17-12----------12-16-12----12-16|---------------|
A#-13----13----------12----12----------12------|---------------|
F#----14----------------14---------------------|---------------|
C#---------------------------------------------|---------------|
G#---------------------------------------------|---------------|
D#---------------------------------------------|---------------|
     Do part B
D#------------|
A#------------|
F#------------|
C#------------|
G#------------|


Important: The song above is NOT stored on the Chordie server. The original song is hosted at www.guitaretab.com. Chordie works as a search engine and provides on-the-fly formatting. Chordie does not index songs against artists/composers will. To remove this song please click here.

This song is displayed as text-only. Transposing and tuning is only available for chordpro-songs.

Login - add to songbook

Rating click stars to rate

Layout
Accuracy

SHARE PAGE  

You need to log in to post comments