Chordie logo

content loaded from cache

Tie Sydameeni  Yo

e|---5-----------------5--------5---------------------------------|


B|-----6-8--5-6----6-8---8-8------6-8--5---5-6-8-6-5--------------|


G|---------------7-----------------------7-----------7------------|


D|----------------------------------------------------------------|


A|----------------------------------------------------------------|


E|----------------------------------------------------------------|



e|----5----------------5---------------------------------------|


B|------6-8--5-6---6-8---8-8-----5-6-5-------------------------|


G|---------------7---------------------5---7-------------------|


D|---------------------------------------7---------------------|


A|-------------------------------------------------------------|


E|-------------------------------------------------------------|



[Dm] Tiedän [Bb]että mua mie[Gm]ttinyt oot [C]tänään, [Dm]      [Bb]   Sen oudon [Gm]tunteen hu[C]omasin
[Dm]   Kuin [Bb]silloin kun [C]äidit muis[A]tavat po[Dm]ikiaan [Bb]             [C]          [A]
[Dm] En ole [Bb]mitään mitä [Gm]minusta lu[C]ulet  [Dm]     En[Gm] edes mitä [Gm]suostun ke[C]rtomaan
[Dm] vain näet [Bb]jälkeni pei[C]ttneen vuo[A]sien [Dm]patinan[Bb]           [C]
[A7]  Kun minä [Dm]odotan        Että  [Dm]löydätkö tien mun [Am]sydämeeni   ja [Dm]väännätkö
auki ruos[Am]teiset portin, oon [Dm]etsinyt turhaan mä [C]pelastajaa[F] sä olet [Bb]kulkenut
länteen ja[C] itään       mutta[Dm] löydätkö tien mun[Am] sydämeeni    ja[Dm] käännätkö
vielä viim[Am]eisen portin sen jäl[Dm]keen et ko[Bb]skaan sä [C]palata voi[F]  vaikka [Bb]aamulla
huomaat     et tunne enää [A7]mitään.

Intro riff 1 time

Verse 2

chorus etc


outro




Important: The song above is NOT stored on the Chordie server. The original song is hosted at www.guitaretab.com. Chordie works as a search engine and provides on-the-fly formatting. Chordie does not index songs against artists/composers will. To remove this song please click here.

A A7 Am Bb C Dm F Gm
variations - click chord images

Transpose chords

Tuning

Rating click stars to rate

Layout
Accuracy

SHARE PAGE  



You need to log in to post comments