Boulder Fair

You Am I

-------------------------------------------------------------------------------

-------------------------------------------------------------------------------
e--0--2--2--0--3--3----3---1--0--2--0--4---1
b--0--3--2--1--0--0----0---0--1--3--2--5---1
g--1--4--2--2--0--0----0---1--0--2--2--6---2
d--2--4--4--2--0--0----0---0--2--0--2--6---3
a--2--2--4--0--2--0----0------3--0--0--4---3
e--0-----2-----3--2----1-------------------1

 EBm
 Tie the sheets to the green washing line
 F#mAm
 And check if the weather's fine
 EBm
 It's that time of the calender year
 F#mAm
 The chateau and millenium wine
 GG/F#
 Are the kids washed and t-shirts clean
G/F Eo
Like your weekly with men's magazines
 CD
 October

 EBm
 By noon it's a sure thing that tempers will rise
 F#mAm
 As the first of the kegs is drained dry
 EBm
 Contemplating the last of the roast
 F#mAm
 Is that your wife that's kissing the under twelve's coach?
 GG/F#
 The prodigy's job is to drive the kids home
G/F Eo
Newspaper hats and a hair frosted comb
 CCD
 October 

BRIDGE- A C#m F#m Fm F#m Fm
 AC#mF#mDmF#mFm
 GG/F#
 Have you caught up on your neighbour's life
G/F Eo
let's drink to the red in the heart of the sky
 CDCDCD
 It's over, it's over, it's over

Outro- E Bm F#m Am
 EEEE
Ending e--5--7--8--7-----
       b--5--7--8--7-----
       e-----------------



A Am Bm C C#m D Dm E F#m Fm G G/F#
variations - click chord images
Transpose chords:
Tuning:
Cool service:
View: Size:
A  A  A
Rating:
Layout:
  • Currently 3/5 Stars.
  • 1
  • 2
  • 3
  • 4
  • 5
 
Accuracy:
  • Currently 3.2/5 Stars.
  • 1
  • 2
  • 3
  • 4
  • 5
 
click stars to rate
Chordie recommends:
Learn to play this song & others via video guitar lessons at JamPlay.com
Songbook:
Login to add this song to your songbook
Support the artist
Preview/buy this song
MSN Music
Why this non-profit ad?

 
login to add comments/video/corrections