Chordie logo

The Decision     Young Knives



-----------------------------------------------------------------------------
			     THE DECISION - The Young Knives
-----------------------------------------------------------------------------
Tabbed by:Wighty

intro

  Dmaj7   [though f#m could be played]
|-------------------------------|
|---7-7--77---7-7--77---7-------|
|---6-6--66---6-6--66---6-------|
|---7-7--77---7-7--77---7---- --|
|---5-5--55---5-5--55---5-------|
|-------------------------------|   x8

verse

   Dmaj7   
|-------------------------------|
|---7-7--77---7-7--77---7-------|
|---6-6--66---6-6--66---6-------|
|---7-7--77---7-7--77---7---- --|
|---5-5--55---5-5--55---5-------|
|-------------------------------| x2

"i wore the blue with the green..."

    F                          E
|-------------------------------|
|---10 10 10 10 10 10 10 10 10 9|
|---10 10 10 10 10 10 10 10 10 9|
|---10 10 10 10 10 10 10 10 10 9|
|---8  8  8  8  8  8  8  8  8  7|
|-------------------------------| 

"that decision was mine..."              [x2]
 
chorus

   A                    G      [this could be played as barre chords]
|-------------------------------|
|---10------------------8-------|
|---9-------------------7-------|      "[]" = optional
|---7-------------------5-------|
|--[7]-----------------[5]------|
|-------------------------------|   x2
      
"the horses in the new forest..."

    F
|---1---------------------------|
|---1---------------------------|
|---2---------------------------|
|---3---------------------------|
|---3---------------------------|
|---1---------------------------|  

"it's easier..."


solo

  trem picked
|---------------------------------|
|--9---7-9-10-9-10-12--10-9-----9-|
|--------------------------7------|
|----------------------------10---|
|---------------------------------|
|---------------------------------|   

|-------------------------------------|
|--9---12-9-12-9-12-7---9-7-9-----7---|
|-----------------------------7-9---9-|
|-------------------------------------|
|-------------------------------------|
|-------------------------------------|

|---------------------------------|
|--9---11-9-11-9-11-7---7-7-6-5---|

|---------------------------------|
|---------------------------------|
|---------------------------------|
|---------------------------------|     



Rythyms you can figure out.

Thanks.




Important: The song above is NOT stored on the Chordie server. The original song is hosted at www.guitaretab.com. Chordie works as a search engine and provides on-the-fly formatting. Chordie does not index songs against artists/composers will. To remove this song please click here.

This song is displayed as text-only. Transposing and tuning is only available for chordpro-songs.

Rating click stars to rate

Layout
Accuracy

SHARE PAGE  

You need to log in to post comments