eToCache5 = ""; ?> by Unknown - guitar chords, guitar tabs and lyrics - chordie
 EDEDAED
|----------------|----------------|----------------|----------------|
|----9-----7--7--|----9--7--------|----------------|---9-9-9--7-----|
|----9-----7--7--|----9--7--------|----------------|---9-9-9--7-----|
|----9-----7--7--|----9--7--------|---------2--2---|---9-9-9--7-----|
|----7-----5--5--|----7--5-----0--|0--0--0--0--0---|---7-7-7--5-----|
|-0-----0--------|-0--------0-----|----------------|0-------------5-|

 AEDAAEDA
|5==-------5--5-5|----------------|-----5----------|----------------|
|5==-------5--5-5|-----9--7-------|-----5----------|---9--7---------|
|6==-------6--6-6|-----9--7-------|-----6----------|---9--7--7------|
|7==-------7--7-7|-----9--7-----7-|-7---7---7--7---|---9--7--7----7==
|7==--7-------7-7|-----7--5---7-7-|-7---7---7--5--5|---7--5--5----7==
|--------5----5-5|--0---------5---|-5---5---5--5--5|-0----------5-5==

 AEDAEDA
|----------------|----------------|----------------|----------------|
|----------------|----9--7--------|----------------|---9--7---------|
|----------------|----9--7-----6--|-6---6--6--6----|---9--7---------|
====-------------|----9--7-----7--|-7---7--7--7----|---9--7------7==|
====-------------|----7--5-----7--|-7---7--7--7----|---7--5------7==|
====--------5--5-|-0--------5--5--|-5---5--5--5----|-0--------5--5==|
|---------------|---------------|--------------|----------5==========
|---------------|----9---7------|--------------|--9--7----5==========
|-------6-------|----9---7----6-|--------------|--9--7----6==========
|7------7--7--7-|----9---7----7-|-7-7-5-7-7-5--|--9--7----7========7=
|7------7--7--7-|----7---5----7-|-7-7-5-7-7-5-5|--7--5----7=====7====
|5---5-----5--5-|-0--------5--5-|-5-5-5-5-5---5|0------5--5==========

Verse:
 EDAEDA
    There's a place called downtown,     where the hippies all go
 EDAEDA
        and they dance the Charleston,      and they do the limbo
 EDAEDA
       The hippies all go there     'cause they want to be seen.
                                         e-5-5-5-5-5-5\\
                                         b-5-5-5-5-5-5\\

 EDAEDA
   It's like a room full of pictures      It's like a psychedelic dream
Chorus:
 EDAEDA
|----------------|----------------|--------------5-5-5-5-5-5-7/-----|
|----9--7-----2--2--2-2-2-2-2-2---|---9---7------5-5-5-5-5-5-7/-----|
|----9--7-----2--2--2-2-2-2-2-2---|---9---7--------|----------------|
|----9--7-----2--2--2-2-2-2-2-2---|---9---7--------|----------------|
|----7--5-----0--0--0-0-0-0-0-0---|---7---5--------|----------------|
|-0--------------|----------------|-0--------------|----------------|

Downtown let's go downtown downtown tonight
 EDAEDA
|----------------|----------------|----------------|----------------|
|---9--7----2----|----------------|---9--7---------|----------------|
|---9--7----2----|----------------|---9--7---6==---|----------------|
|---9--7----2----|-2--4----2--4---|---9--7---7==--7|-9--9--7--7-----7
|---7--5----0----|-0--0----0--0---|---7--5---7==--7|-9--9--7--7-7_9-|
|-0--------------|----------------|0---------5==--5|----------------|

Downtown let's have a party downtown at night
Solo I:
|----------------|---5--5---5-----|----------------|----------------|
|--9--7-----2----|--5---5---5-----|---5---5--5---5-|---8----5-----5-|
|--9--7-----2----|7^------7^--7^(7)5--5---5--5---5-|7^==(7)-5-----5-|
|--9--7-----2----|----------------|-----7------7---|-----------7----|
|--7--5-----0----|----------------|----------------|----------------|
|----------------|----------------|----------------|----------------|

| E D A |A | E D |
Verse: (same chord style as first verse)
Yeah it's right around the corner, up and down the hill
When you hear the band playing, it's gonna give you a chill
Give your money to the gateman, young blood in his eye
Hold on to your baby, when you slip into the sky
Chorus:
 EDAEDA
|----------------|----------------|--------------5-5-5-5-5-5-7/-----|
|----9--7-----2--2--2-2-2-2-2-2---|---9---7------5-5-5-5-5-5-7/-----|
|----9--7-----2--2--2-2-2-2-2-2---|---9---7--------|----------------|
|----9--7-----2--2--2-2-2-2-2-2---|---9---7--------|----------------|
|----7--5-----0--0--0-0-0-0-0-0---|---7---5--------|----------------|
|-0--------------|----------------|-0--------------|----------------|

Downtown let's go downtown downtown tonight
 EDAEDA
|----------------|----------------|----------------|----------------|
|---9--7----2----|----------------|---9--7---------|----------------|
|---9--7----2----|----------------|---9--7---6==---|----------------|
|---9--7----2----|-2--4----2--4---|---9--7---7==--7|-7-----7--7--7--|
|---7--5----0----|-0--0----0--0---|---7--5---7==--7|-7-9-7-7--7--7--|
|-0--------------|----------------|0---------5==--5|-5-5-5-5--5--5--|

Downtown hear the band playin Downtown all right
Solo II:
 A
|----------------|----------------|----------------|----------------|
|----------------|----------------|----------------|----------------|
|5\4-4-2-5-4-----5--4---2---------|-5----4--2--0--5|-4----2---------|
|5\4-4-2-5-4--5--5--4---2---------|-5----4--2--0--5|-4----2---------|
|-------------5--|----------------|----------------|----------------|
|----------------|---------5--5---|----0-----------|---------/5--5--|
|----------------|----------------|----------------|----------------|
|----------------|----------------|----------------|----------------|
|5------5--4-----|5--4----2-------|---5\4-----5\4--|-5\4------------|
|5------5--4--5--|5--4----2-------|---5\4-----5\4--|-5\4---7---7-7-7|
|-------------5--|----------------|----------------|-------7---7-7-7|
|----------------|-----------0--3-|0-------0-------|-------5---5-5-5|
|----------------|---5--5---------|-----5----------|----------------|
|----9--7--------|---5--5-------8^==(8)---8-5------|----------------|
|----9--7--------|7^-----7^-7-5---|-----------7^-7-5--55`-5==-7-5-7-|
|----9--7-----7--|----------------|----------------|7----7----------|
|----7--5-----7--|----------------|----------------|----------------|
|-0--------5--5--|----------------|----------------|----------------|
|----------------|------------8---|10^==-8----8-8^-5=======---------|
|----------------|----8-8_10---10-8--------10------|----------------|
7^(7)_5-7^(7)_5--5^-/9-9----------|----------------|----------------|
|--------------7-|-7--------------|----------------|----------------|
|----------------|----------------|----------------|----------------|
|----------------|----------------|----------------|----------------|

Verse:
Jimmy's playin in the backroom, Led Zeppelin's on stage
There's a mirror ball twirlin, and a note from Page
Like a water-washed diamond in a river of sin
Goin' down like a whirlpool when you get sucked in
Chorus:
 EDAEDA
|----------------|----------------|--------------5-5-5-5-5----------|
|----9--7-----2--2----------------|---9---7------5-5-5-5-5--7^(7)-5-|
|----9--7-----2--2----------------|---9---7--------|--------7^(7)-5-|
|----9--7-----2--2--2---2-2-2---5-|---9---7--------|----------------|
|----7--5-----0--0--0-3-0-0-0-3---|---7---5--------|----------------|
|-0--------------|----------------|-0--------------|----------------|

Downtown let's go downtown Downtown tonight
 EDAEDA
|----------------|----------------|----------------|----------------|
|---9--7----2----|----------------|---9--7---------|----------------|
|---9--7----2----|----------------|---9--7---6==---|----------------|
|---9--7----2----|-2--4----2--4---|---9--7---7==--7|-7-----7--7--7--|
|---7--5----0----|-0--0----0--0---|---7--5---7==--7|-7-9-7-7--7--7--|
|-0--------------|----------------|0---------5==--5|-5-5-5-5--5--5--|

Downtown hear the band playin now Downtown (alright)

A D E
variations - click chord images
Transpose chords:
Tuning:
Cool service:
View: Size:
A  A  A
Rating:
Layout:
  • Currently 1.9/5 Stars.
  • 1
  • 2
  • 3
  • 4
  • 5
 
Accuracy:
  • Currently 2/5 Stars.
  • 1
  • 2
  • 3
  • 4
  • 5
 
click stars to rate
Chordie recommends:
Check out JamPlay.com for online video guitar lessons
Songbook:
Login to add this song to your songbook
Support the artist
Preview/buy this song
MSN Music
Why this non-profit ad?

 
login to add comments/video/corrections