Guitar Tabs, Chords and Lyrics


Pacific Theatre   Yourcodenameis Milo



----------------------------------------------------------------------------
	          PACIFIC THEATRE - Yourcodenameis:Milo
----------------------------------------------------------------------------

Tabbed by: The Mop™
Email: maxbobcat@yahoo.co.uk

I love this new tune!

Main riff
 E
e--------------|
B--------------|
G--------------|
D--------------|
A--5h7-7-7-7-7-|
E--------------|

Verse guitars; one takes the upper line, the other plays the lower notes
e-------------------10--------------|
B--9-------10-12-------10----13-12--|
G-----------------------------------|
D----------10--------9--------------|
A--7----------10--------9----11-10--|
E-----------------------------------|

Get out of the city
For all your problems I've got mine
This life isn't pretty
I'm still on the assembly line
With my sabre tooth smile


Then there's some ad lib soloing by the 2 guitars; the left channel
guitar just tremolo picks and messes about during both solos,
while the other plays the same solo at the start and end of the
song...this isn't note  note accurate, but it's good fun to
just improvise around with it!

(Right channel)
e-----------------------------------------------------|
B-----------------------------------------------------|
G-14161416etc.--13-14-16-14-13-14-13-14b-14-16-17-14--|
D-----------------------------------------------------|
A-----------------------------------------------------|
E-----------------------------------------------------|

e---------------------------------------------------------------------|
B--------------------------------------------------------------15b17--|
G--13b----11-----11-13-14--13-11-13-11----11--13-14-13-14-16----------|
D-------------14-----------------------14-----------------------------|
A---------------------------------------------------------------------|
E---------------------------------------------------------------------|

Why should I speak to you
I shake your hand, you'll shake my fist
Sabre tooth smile
How could you bond this rift


Then entering the triplet feel bit...The bass implies the chords E, F#m,
A and D, the section starts on the A then D chords before resolving
to the E.

 PM------------|
   A
e---------------|
B---------------|
G---------------|
D--7-7-7-7-7-7--|
A---------------|
E---------------|


The main guitar plays this repeated thing..
e---------------|
B--9-9-9-71010--|
G--9-9-9-9-9-9--|
D---------------|
A---------------|
E---------------|

While another guitar plays variations on this; sometimes he sticks
around on the first octave chord thing, sometimes he plays the
whole thing below in with the first guitar.
e---------------|
B---------------|
G--9-9-9-71111--|
D--x-x-x-x-x-x--|
A--7-7-7-5-9-9--|
E---------------|

Try and make it up to me
I'll enjoy your sympathy
10,000 ways to comfort me
I'll never accept this apology

Closing the section...

Guitar 1
e--9--9--9-7-10-10--|
B-10-10-10-8-12-12--|
G-------------------|
D-------------------|
A-------------------|
E-------------------|
Guitar 2
e-----------------|
B-----------------|
G--9-9-9-7-11-11--|
D-----------------|
A-----------------|
E-----------------|

From the greatest skies we'll fall from
Landing on your sympathetic tongue


"It's over to you." ending part

The left channel guitar plays variations on this with some sort of offbeat rhythm...
e---------------------------12-12--|
B--1012-12-10-10-1012-12-12--------|
G----------------------------------|
D----------------------------------|
A----------------------------------|
E----------------------------------|


Before closing with this on the left side and the figure from before
on the right.

e-----------------|
B--9-9-9-7-101010-|
G--9-9-9-7-111111-|
D-----------------|
A-----------------|
E-----------------|

Then the riff kicks back in with some more solos as the tune fades.



Important: The song above is NOT stored on the Chordie server. The original song is hosted at www.guitaretab.com. Chordie works as a search engine and provides on-the-fly formatting. Chordie does not index songs against artists'/composers' will. To remove this song please click here.

This song is displayed as text-only. Transposing and tuning is only available for chordpro-songs.

Login - add to songbook

Rating click stars to rate

Layout
Accuracy

SHARE PAGE  




You need to log in to post comments