Chordie logo


Youth Of Today   Youth Of Today










Author/Artist: Youth of Today
Title: Youth of Today
Album: Youth of Today
Transcribed by: Erik Wendel aka Corse
Email: xpraven@hotmail.com


------------------------------------------------------------------------------|
------------------------------------------------------------------------------|
------------------------------------------------------------------------------|
-------------2-5-2-5---------------5-4-4-3------------------------------------|
-------------2-5-2-5---------------5-4-4-3------------------------------------|
---0-0-0-0---0-3-0-3-----0-0-0-0---3-2-2-1------------------------------------|


------------------------------------------------------------------------------|
------------------------------------------------------------------------------|
------------------------------------------------------------------------------|
---2-2-2-2-2-2-2-2-5-5-4-7-7-7-7-7--------------------------------------------|
---2-2-2-2-2-2-2-2-5-5-4-7-7-7-7-7--------------------------------------------|
---0-0-0-0-0-0-0-0-3-3-2-5-5-5-5-5--------------------------------------------|
          x8                x5

-------------------------------------|----------------------------------------|
-------------------------------------|----------------------------------------|
----4-4-4-4-4-4-4-4-4-4-4-4--9-7-----|----4-4-4-4-4-4-4-4-4-4-4-4--4-7--------|
----4-4-4-4-4-4-4-4-4-4-4-4--9-7-----|----4-4-4-4-4-4-4-4-4-4-4-4--4-7--------|
----2-2-2-2-2-2-2-2-2-2-2-2--7-5-----|----2-2-2-2-2-2-2-2-2-2-2-2--2-5--------|
-------------------------------------|----------------------------------------|
             x12                                     x12


------------------------|-----------------------------------------------------|
------------------------|-----------------------------------------------------|
---2--------5--7--5-----|---2-------------------------------------------------|
---2--------5--7--5-----|---2-----5-----4-----3-----2-------------------------|
---0---0-0--3--5--3-----|---0-----5-----4-----3-----2-------------------------|
------------------------|---------3-----2-----1-----0-------------------------|
                           all power chords except the last one is played
                           lots of times, figure it out yourself
that should be it,
i really dont know the song


Important: The song above is NOT stored on the Chordie server. The original song is hosted at www.guitaretab.com. Chordie works as a search engine and provides on-the-fly formatting. Chordie does not index songs against artists/composers will. To remove this song please click here.

This song is displayed as text-only. Transposing and tuning is only available for chordpro-songs.

Login - add to songbook

Rating click stars to rate

Layout
Accuracy

SHARE PAGE  




You need to log in to post comments