Chordie logo

You Got The Call   Yovee



-------------------------------------------------------------------------------
			YOU GOT THE CALL - Yovee
-------------------------------------------------------------------------------
Tabbed by: Tuna
Email:take.off.ur.pants.and.tuna@gmail.com
Tuning:standard

Most of it sounds fine. Bt im pretty sure guitar 2 in the 2nd verse is wrong bt
i jst couldnt find it cause its hard to hear.


Intro and Verses

e|-------------------------------------------------------------------------|
B|-------------------------------------------------------------------------|
G|-------------------------------------------------------------------------|
D|---3-3-3-3-3-3-3-0---7-7-7-7-7-7-0----5-5-5-5-5-5-5-0---7-7-7-7-7-7-7-0--|
A|--7-7-7-7-7-7-7-7---3-3-3-3-3-3-3----7-7-7-7-7-7-7-7---3-3-3-3-3-3-3-3---|
E|-------------------------------------------------------------------------|

Maybe I missed a few out bt jst listen to the song for the number of times.


Guitar 2 comes in at the end of the 1st verse with:

e|----------|
B|----------|
G|--5-7~----|
D|----------|
A|----------|
E|----------|

or

e|-----------|
B|-----------|
G|---5-7~----|
D|-7---------|
A|-----------|
E|-----------|

They both sound good. Listen to the song for timing.

Chorus:(Im not 100% sure its rit bt this is for those hu want to jst play along
with something tht sounds similar)


e|-00-000-000-000-0-----------------------------------------------------|
B|-11-111-111-111-1--11-111-111-111-1-----------------------------------|
G|-22-222-222-222-2--22-222-222-222-2---55-444-555-444--55-444-555-444--|
D|-22-222-222-222-2--33-333-333-333-3---55-555-555-555--66-666-666-666--|
A|-00-000-000-000-0--33-333-333-333-3---55-555-555-555--77-777-777-777--|
E|-------------------11-111-111-111-1---33-333-333-333--44-444-444-444--|

Verse 2:

Guitar 1 stays the same and guitar 2 does the end of verse 1 constantly throughout verse 2

Verse 2 (part two):

e|---------------------------------------------------------------------------|
B|---------------------------------------------------------------------------|
G|-----------------------00000000------------------------00000000-00000000---|
D|---2-5---0h2-5---2-----22222222----2-5---0h2-5---7-5-2-55555555-44444444---|
A|-0-----0-------0---3-2-33333333--0-----0-------0-------55555555-55555555---|
E|---------------------------------------------------------------------------|
"I need to piece..."     "Feelings tht..."               "happiness inside.."

Outro:

e|-------------------------------------------------------------------------|
B|---10----10---10----10----10----5---7--5---7---5-------------------------|
G|----------------------------9-----------------------5-4-2-4-2--5-4-2-4-2-|
D|-10---10---10----10----10------5--5---5--5---5--5--2-0-0-0-0-02-0-0-0-0--|
A|-------------------------------------------------------------------------|
E|-------------------------------------------------------------------------|

Guitar 2:

e|-00-000-000-000-11-111-111-111---------------------------------|
B|-11-111-111-111-11-111-111-111---------------------------------|
G|-22-222-222-222-22-222-222-222-55-444-555-444-55-444-555-444---|
D|-22-222-222-222-33-333-333-333-55-555-555-555-66-666-666-666---|
A|-00-000-000-000----------------55-555-555-555-77-777-777-777---|
E|-------------------------------33-333-333-333-44-444-444-444---|


end on:

e|-0-------|
B|-1-------|
G|-2-------|
D|-2-------|
A|-0-------|
E|---------|


| /  slide up
| \  slide down
| h  hammer-on
| p  pull-off
| ~  vibrato
| +  harmonic
| x  Mute note


Important: The song above is NOT stored on the Chordie server. The original song is hosted at www.guitaretab.com. Chordie works as a search engine and provides on-the-fly formatting. Chordie does not index songs against artists/composers will. To remove this song please click here.

This song is displayed as text-only. Transposing and tuning is only available for chordpro-songs.

Login - add to songbook

Rating click stars to rate

Layout
Accuracy

SHARE PAGE  

You need to log in to post comments