Chordie logo


Alive Is Dead   Zao



Title:  Alive Is Dead
Artist:  Zao
Tabbed by:  Andrew Jackson
Tuning:  Drop C

Guitar 1: 
d|--------------------- 
A|--------------------- 
F|--------------------- 
C|-0----1----8----1--3- 
G|-0----1----8----1--3- 
C|-0----1----8----1--3- 

Guitar 2: 
d|----------------------- 
A|----------------------- 
F|-12----7----10----3--5- 
C|--X----X-----X----X--X- 
G|-10----5-----8----1--3- 
C|----------------------- 

Piano Outro: 
d|--------------------------------------------------------------------
A|--------------------------------------------------------------------
F|-(3-5)-12--7--10--3-5--12--7--10--3-5--0-------------0--------------
C|------------------------------------------0--3----------0--3--------
G|------------------------------------------------1-3-----------1-3---


Important: The song above is NOT stored on the Chordie server. The original song is hosted at www.guitaretab.com. Chordie works as a search engine and provides on-the-fly formatting. Chordie does not index songs against artists/composers will. To remove this song please click here.

This song is displayed as text-only. Transposing and tuning is only available for chordpro-songs.

Login - add to songbook

Rating click stars to rate

Layout
Accuracy

SHARE PAGE  




You need to log in to post comments