Chordie logo


Amphetamine Addiction   Zero Boys



Intro
E------------------------------------------------------------------|
B------------------------------------------------------------------|
G-9-9-9-9-9-9-9-9--1112--1112-1112-11-9--9-9-9-9-9-9-9--7-7-7-7----|
D-9-9-9-9-9-9-9-9--1112--1112-1112-11-9--9-9-9-9-9-9-9--7-7-7-7-9--|
A-7-7-7-7-7-7-7-7--9/10--9-10-9-10-9--7--7-7-7-7-7-7-7--5-5-5-5-9--|
E---------------------------------------------------------------7--|

Verse               
E---------------------|
B---------------------|
G-9-9-9-9-9-----------|
D-9-9-9-9-9--10109-9--|
A-7-7-7-7-7--10109-9--|
E------------8-8-7-7--|

Chours                                      
E-----------------------------------------12/12/12-------|
B-----------------------------------------12/12/12-------|
G-7-7-7-7-7----7-7-7-7--9----7-7-7-7-7-7-----------------|
D-7-7-7-7-7-7--7-7-7-7--9----7-7-7-7-7-7-----------------|
A-5-5-5-5-5-7--5-5-5-5--7----5-5-5-5-5-7-----------------|
E-----------5--------------------------5-----------------|

E---------------------------------------|
B---------------------------------------|
G-7-7-7-7-7---7-7-7-7--9--7-7-7-7-7-----|
D-7-7-7-7-7-7-7-7-7-7--9--7-7-7-7-7--7--|
A-5-5-5-5-5-7-5-5-5-5--7--5-5-5-5-5--7--|
E-----------5------------------------5--|

Solo (part of... the ending anyway)
E---------------12/15/12/15/12/15/12/15/12/15/12/15/12/15-|
B---------------12/12/12/12/12/12/12/12/12/12/12/12/12/12-|
G---------------------------------------------------------|
D---------------------------------------------------------|
A---------------------------------------------------------|
E---------------------------------------------------------|


E-12/15/12/15/12/15/12/15/12/15/12/15/12/17-|
B-12/12/12/12/12/12/12/12/12/12/12/12/12/12-|
G-------------------------------------------|
D-------------------------------------------|
A-------------------------------------------|


Important: The song above is NOT stored on the Chordie server. The original song is hosted at www.guitaretab.com. Chordie works as a search engine and provides on-the-fly formatting. Chordie does not index songs against artists/composers will. To remove this song please click here.

This song is displayed as text-only. Transposing and tuning is only available for chordpro-songs.

Login - add to songbook

Rating click stars to rate

Layout
Accuracy

SHARE PAGE  




You need to log in to post comments