Chordie logo


Anything Is Possible   Zoegirl



Song: Anything Is Possible
Album: This Providence
Band: This Providence
Tabber: Calum Neil (afirock74@hotmail.com)
Tuning: Flat Tuning (tuned down 1/2 a step)

Intro: 1
e|-0--------0-------0-------|
b|-2--------2-------0-------|
g|-2--------2-------1-------|
d|-2-(16x)--0-(8x)--2-(8x)--|
a|-0--------0-------2-------|
E|------------------0-------|

Intro: 2
e|-0------------------------|
b|-2------------------------|
g|-2--------4-4-4-4-4--6-6--|
d|-2-(16x)--3-3-3-3-3--7-7--|
a|-0--------4-4-4-4-4--5-5--|
E|--------------------------|

Verse: (3x)
e|-----------------------------------------------|
b|-----------------------------------------------|
g|-6--6-6-------6--6-6--------6---6-6----4--4-4--|
d|--------7-7-0--------7-7-0--7---7-7----3--3-3--|
a|----------------------------5---5-5---4-4-4-4--|
E|----------------------------7--7-7-7-----------|

Pre Chorus Guitar 1:            ("There's gotta be")
e|---5--------------5---4-4h5-|---------------------|
b|--5--------5-----5----------|---------------------|
g|-6----6-7-7----6----6-------|-4-------------------|
d|----------------------------|-3-------------------|
a|----------------------------|-4-------------------|
E|----------------------------|---------------------|

Pre Chorus Guitar 2:
e|-0---0------|
b|-3---2------|
g|-2---2--4---|
d|-----2--2---| (2x)
a|-----0--4---|
E|------------|

Chorus:
e|-0-0-0-0-0-0-0-0-0-------------------------------------------------------|
b|-2-2-2-2-2-2-2-2-2---------------10-10-10-10-10-10-10--------------------|
g|-2-2-2-2-2-2-2-2-2--6-6-6-6-6-6--11-11-11-11-11-11-11--6-6-6-6--6-6-6-6--|
d|-2-2-2-2-2-2-2-2-2--7-7-7-7-7-7--11-11-11-11-11-11-11--7-7-7-7--7-7-7-7--|
a|-0-0-0-0-0-0-0-0-0--5-5-5-5-5-5--9--9--9--9--9--9--9---4-4-4-4--5-5-5-5--|
E|--------------------7-7-7-7-7-7------------------------------------------|

After 2nd Pre Chours:
e|------0--------|
b|-10---0----5---|
g|-11---9----7---|
d|-11---9----7---|
a|-9----7----5---|
E|---------------|


Bridge:                first time Second time 
e|---------------------|---------|-----------|
b|---------------------|---------|-----------|
g|-4-4-4--7-7-7--6-6-6-|-4-4-4---|-4-4-4-----|
d|-4-4-4--7-7-7--7-7-7-|-2-2-2---|-3-3-3-----|
a|-2-2-2--5-5-5--7-7-7-|-4-4-4---|-4-4-4-----|
E|---------------5-5-5-|---------|-----------|





Important: The song above is NOT stored on the Chordie server. The original song is hosted at www.guitaretab.com. Chordie works as a search engine and provides on-the-fly formatting. Chordie does not index songs against artists/composers will. To remove this song please click here.

This song is displayed as text-only. Transposing and tuning is only available for chordpro-songs.

Login - add to songbook

Rating click stars to rate

Layout
Accuracy

SHARE PAGE  




You need to log in to post comments