Guitar Tabs, Chords and Lyrics


Crazy Cute  Zolof The Rock and Roll Destroyer

|-------------------------------------------------------|


|-------------------------------------------------------|


|----------4-4-6--7-7-6-7--9-9-9------------------------|

|-7-7-6-7--4-4-6--7-7-6-7--9-9-9------------------------|
|-7-7-6-7-—2-2-4--5-5-4-5--7-7-7------------------------|
|-5-5-4-5-----------------------------------------------|
|-------------------------------------------------------|
|-------------------------------------------------------|
|-------------------------------------------------------|
|-------------------------------------------------------|
|---------—2-2-4-5-5-4-5-7-7-7--------------------------|
|-5-5-4-5-----------------------------------------------|
|-------------------------------------------------------|
|-------------------------------------------------------|
|------4---6--7----9---11--7-7—-6----7---7-7------------|
|-7----4---6--7----9---11--7-7--6----7---7-7------------|
|-7----2---4--5----7---9---5-5--4----5---5-5------------|
|-5-----------------------------------------------------|
|-------------------------------------------------------|
|-------------------------------------------------------|
|------7----9-------------------------------------------|
|-7----7----9-------------------------------------------|
|-7----5----7-4x----------------------------------------|
|-5-8x-5-4x---------------------------------------------|
E[A5]very time I [A/D5]see you n[E5]ear me
I [A5]feel ashamed I feel [A/D5]shy   [E5]
Ev[A5]ery time I [A/D5]see you ne[E5]arby
I w[A5]anna scream and [A/D5]hide   [E5]
Solo:
E|----17-14------------19-14-----------21-14--------------------------------|
B|----------15-14v-----------15-14v-----------15-14v------------------------|
G|--------------------------------------------------------------------------|



however many times it is
E|-t19-12p9-9h12--t17-12p9-9h12-t19------------------------------------|
B|---------------------------------------------------------------------|
G|---------------------------------------------------------------------|



slide down and tap every string and then slide up while tapping every string
E|-19s21-21^----------------------------------------------|
B|--------------------------------------------------------|
G|--------------------------------------------------------|				


Important: The song above is NOT stored on the Chordie server. The original song is hosted at www.guitaretab.com. Chordie works as a search engine and provides on-the-fly formatting. Chordie does not index songs against artists'/composers' will. To remove this song please click here.

Text color:
Chord color:
Chord grids: 
Font size:    
Page size: 

A5 E5
variations - click chord images

Login - add to songbook

Transpose chords

Tuning

Rating click stars to rate

Layout
Accuracy

SHARE PAGE  




You need to log in to post comments