Guitar Tabs, Chords and Lyrics


Ode To Madonna   Zolof The Rock and Roll Destroyer



intro
e-------------------------------------|
b-------------------------------------|
g---------3-3--X-X--7-7-7---6---4-----|
d---3--X--3-3--X-X--7-5-5---6---4-----| (x4)
a---3--X--1-1--X-X--5-5-5---4---2-----|
e---1--X------------------------------|


pre verse
e-------------------------------------------|
b-------------------------------------------|
g-------------3-----------------------------|
d---3-3-3--X--3--X-X--X--X--X-X--X--X--X-X--| (x2)
a---3-3-3--X--1--X-X--X--X--X-X--X--X--X-X--|
e---1-1-1--X-----X-X--X--X--X-X--X--X--X-X--|


verse
e-------------------------------------------|
b-------------------------------------------|
g-------------3-----------------------------|
d---3-3-3--X--3--X-X--X--X--X-X--X--X--X-X--| (x3
a---3-3-3--X--1--X-X--X--X--X-X--X--X--X-X--|
e---1-1-1--X-----X-X--X--X--X-X--X--X--X-X--|


on the 4th time of the verse end like this
e---------------------------------------|
b---------------------------------------|
g-------------3--X---3-3-3-3------------|
d---3-3-3--X--3--X---3-3-3-3------------|
a---3-3-3--X--1--X---1-1-1-1------------|
e---1-1-1--X----------------------------|


chorus
e------------------------------------|
b------------------------------------|
g----------3-----3--X--6--X--4--X-X--|
d---3--X---3--X--3--X--6--X--4--X-X--| (x4)
a---3--X---1--X--1--X--4--X--2--X-X--|
e---1--X------X-----------------X-X--|


pre verse
e-------------------------------------------|
b-------------------------------------------|
g-------------3-----------------------------|
d---3-3-3--X--3--X-X--X--X--X-X--X--X--X-X--| (x2)
a---3-3-3--X--1--X-X--X--X--X-X--X--X--X-X--|
e---1-1-1--X-----X-X--X--X--X-X--X--X--X-X--|


pre verse
e-------------------------------------------|
b-------------------------------------------|
g-------------3-----------------------------|
d---3-3-3--X--3--X-X--X--X--X-X--X--X--X-X--| (x3
a---3-3-3--X--1--X-X--X--X--X-X--X--X--X-X--|
e---1-1-1--X-----X-X--X--X--X-X--X--X--X-X--|


on the 4th time of the verse end like this
e---------------------------------------|
b---------------------------------------|
g-------------3--X---3-3-3-3------------|
d---3-3-3--X--3--X---3-3-3-3------------|
a---3-3-3--X--1--X---1-1-1-1------------|
e---1-1-1--X----------------------------|


chorus
e------------------------------------|
b------------------------------------|
g----------3-----3--X--6--X--4--X-X--|
d---3--X---3--X--3--X--6--X--4--X-X--| (x4)
a---3--X---1--X--1--X--4--X--2--X-X--|
e---1--X------X-----------------X-X--|


bridge
e-------------------------------------------|
b-------------------------------------------|
g-------------3-----------------------------|
d---3-3--X-X--3--X-X--X--X--X-X--X--X--X-X--| (x3)
a---3-3--X-X--1--X-X--X--X--X-X--X--X--X-X--|
e---1-1--X-X-----X-X--X--X--X-X--X--X--X-X--|


on the 4th time of the verse end like this
e---------------------------------------|
b---------------------------------------|
g-------------3--X---3-3-3-3------------|
d---3-3-3--X--3--X---3-3-3-3------------|
a---3-3-3--X--1--X---1-1-1-1------------|
e---1-1-1--X----------------------------|


chorus
e------------------------------------|
b------------------------------------|
g----------3-----3--X--6--X--4--X-X--|
d---3--X---3--X--3--X--6--X--4--X-X--| (x4)
a---3--X---1--X--1--X--4--X--2--X-X--|
e---1--X------X-----------------X-X--|


e------------------------------------------------------|
b------------------------------------------------------|
g--3-3-3-3-x-4----3-3-3-3-x-4-4-4-4-x-3-3-3-3-3-3-3-3--|
d--3-3-3-3-x-4----3-3-3-3-x-4-4-4-4-x-3-3-3-3-3-3-3-3--|
a--1-1-1-1-x-2----1-1-1-1-x-2-2-2-2-x-1-1-1-1-1-1-1-1--|
e------------------------------------------------------|


Important: The song above is NOT stored on the Chordie server. The original song is hosted at www.guitaretab.com. Chordie works as a search engine and provides on-the-fly formatting. Chordie does not index songs against artists'/composers' will. To remove this song please click here.

This song is displayed as text-only. Transposing and tuning is only available for chordpro-songs.

Login - add to songbook

Rating click stars to rate

Layout
Accuracy

SHARE PAGE  




You need to log in to post comments