Guitar Tabs, Chords and Lyrics


Radio Zum Glueck  Unknown

-------------------------------------------------------------------------------



-------------------------------------------------------------------------------

[B]               [Fis]               [E]                  [B]         [A]                            
----------------------------------------------------------------|
---------------------------------------0----------------------5-|
---8-------8------3---4---3--------1-------1---------8------6---|
---9-9---9---9------4---4---4----2---2---2---2-----9---9--7-----|
----------------------------------------------------------------|
-7-----7-------\2-------------\0----------------/7--------------|

Strophe 1 (wie Intro):
us [B]luter Gwohnheit drücken'i am [Fis]Morge uf em Wäg uf ds WC
[E]gäng wieder uf ds Chnöpfli vo däm [B]Grät [A]
u [B]das wo jitz passiert isch wie wenn e [Fis]Trättmine explodiert
i [E]däm Momänt won'i's ghöre isch es z's[B]chpät [A]


Refrain (Powerchords):
warum [Gis]sände die hütt [B]wieder nume [Fis]Scheisse
u warum [Gis]hocken'i hie [B]wehrlos uf em [Fis]Klo
u [Gis]warum het niemer Erbarme
[Gis]i ha nid so längi Arme
cha nid [E]ändlech öpper cho
wieso zieht [Gis]niemer a däm S[Bb]chtecker vo däm [B]Radio


Strohpe 2 (Powerchords):
zum Glück si mini [Fis]Fänschter zue
es isch e [E]schöne Morge u mini Nachbare si [B]dusse [A]
[B]i wohne scho lang hie un'i [Fis]kenne aui guet
u mir wär's [E]ziemli piinlech we die würde [B]ghöre was i [A]lose

(Refrain)

Solo/Break (Powerchords):
B B Fis Fis E E B A (2x)

(Refrain) (2x)

Schluss: wie Intro + B

Important: The song above is NOT stored on the Chordie server. The original song is hosted at www.guitaretab.com. Chordie works as a search engine and provides on-the-fly formatting. Chordie does not index songs against artists'/composers' will. To remove this song please click here.

Text color:
Chord color:
Chord grids: 
Font size:    
Page size: 

A B Bb E
variations - click chord images

Login - add to songbook

Transpose chords

Tuning

Rating click stars to rate

Layout
Accuracy

SHARE PAGE  




You need to log in to post comments