Chordie logo


Nothing To Do   Zutons



start

e|-7-10-7----7-------------------------------------------|
B|-8------10---------------------------------------------|
G|-7-----------------------------------------------------|
D|-------------------------------------------------------|   x 2
A|-------------------------------------------------------|
E|-------------------------------------------------------|

e|---------------------------------------------------------------|
B|---------------------------------------------------------------|
G|---------/11-10------9-----------------------------------------|
D|---------/12-11-----10-----------------------------------------|
A|---------------------------------------------------------------|
E|-----7-----------8---------------------------------------------|

this carries on as verse

chorus
     'cus god   created  something
e|----3------------------------0-----------------------------|
B|----3------------------------0-----------------------------|
G|----0------------------------0-----------------------------|
D|----0------------------------2-----------------------------|   etc.
A|----2------------------------2-----------------------------|
E|----3------------------------0-----------------------------|

bit with saxophone.

e|---12-15-12-12-12--------17-17-17-15-15----------------|
B|---12-12-12-15-12--------15-15-15-15-17----------------|
G|---12-12-12-12-12--------16-16-16-16-16----------------|
D|---14-14-14-14-14--------17-17-17-17-17----------------|
A|-------------------------------------------------------|
E|-------------------------------------------------------|

e|---12-15-12-12-12--------------------------------------|
B|---12-12-12-15-12--------------------------------------|
G|---12-12-12-12-12---------12-14-14-12-12---------------|
D|---14-14-14-14-14---------12-12-12-12-14---------------|
A|--------------------------14-14-14-14-14---------------|
E|-------------------------------------------------------|


| /  slide up
| \  slide down
| h  hammer-on
| p  pull-off
| ~  vibrato
| +  harmonic
| x  Mute note


Important: The song above is NOT stored on the Chordie server. The original song is hosted at www.guitaretab.com. Chordie works as a search engine and provides on-the-fly formatting. Chordie does not index songs against artists/composers will. To remove this song please click here.

This song is displayed as text-only. Transposing and tuning is only available for chordpro-songs.

Login - add to songbook

Rating click stars to rate

Layout
Accuracy

SHARE PAGE  




You need to log in to post comments