Yeah

Zwan

------------------------------


 C#EF#BDC#
e|---------|-----|---------|--------|
B|---------|-10~-|---------|--------|
G|--6/9-9--|-11~-|--4-4-4--|-7~-(6)-| x2
D|--6/9-9--|-11~-|--4-4-4--|-7~-(6)-|
A|--4/7-7--|--9~-|--2-2-2--|-5~-(4)-|
E|---------|-----|---------|--------|


VERSE:
"I give you everything..."
 C#EF#BD
e|---------|--------------------|-------|-----------|
B|---------|-10--10-----10------|-------|-----------|
G|--6/9-9--|-11----11-----11----|--4-4--|-7--7p6-6--| x3
D|--6/9-9--|-11-------11----11--|--4-4--|-7---------|
A|--4/7-7--|--9-----------------|--2-2--|-5---------|
E|---------|--------------------|-------|-----------|

"yeah....yeah..."
 C#EF#BD
e|---------|-----|---------|--------|
B|---------|-10~-|---------|--------|
G|--6/9-9--|-11~-|--4-4-4--|-7~-(6)-| x2
D|--6/9-9--|-11~-|--4-4-4--|-7~-----|
A|--4/7-7--|--9~-|--2-2-2--|-5~-----|
E|---------|-----|---------|--------|


CHORUS:
"What I want is what you want..."
 C#EF#BD
e|---------|--------------------|-------|-----------|
B|---------|-10--10-----10------|-------|-----------|
G|--6/9-9--|-11----11-----11----|--4-4--|-7--7p6-6--| x3
D|--6/9-9--|-11-------11----11--|--4-4--|-7---------|
A|--4/7-7--|--9-----------------|--2-2--|-5---------|
E|---------|--------------------|-------|-----------|


Lead part
e|--------------14--------|---------------------------|
B|--14h17-17-14----14-17--|--14h17-17-14--------------|
G|------------------------|--------------16-14--------|
D|------------------------|--------------------16-14--|
A|------------------------|---------------------------|
E|------------------------|---------------------------|
e|--------------14--------|--------------------|-19-17--|
B|--14h17-17-14----14-17--|--14h17-17-14-------|--------|
G|------------------------|--------------16-14-|--------|
D|------------------------|--------------------|--------|
A|------------------------|--------------------|--------|
E|------------------------|--------------------|--------|


BRIDGE:
"Coz' you are..."
 DB
e|---------|---------|
B|---------|---------|
G|--7-7-7--|---------|
D|--7-7-7--|--9-9-9--|
A|--5-5-5--|--9-9-9--|
E|---------|--7-7-7--|

Lead part
e|------------------------------------------------------------|----------|
B|------------------------------------------------------------|----------|
G|-14b(16)r---------------------------------------------------|----------|
D|-----------14b(16)r---12h14-16b(18)r-12b~--14b(15)----12/14-|-*14b(16)r|
A|---------------------------------------------------12~------|----------|
E|------------------------------------------------------------|----------|

*repeat this bend a few times

CHORUS 2:(repeat second verse part "yeah...yeah..." with the lead playing over it)

VERSE:

CHORUS 2:

BRIDGE:

CHORUS 2:

OUTRO:
"coz' you areeee..."
 ADABD
e|-------------|-------------|
B|-------------|-------------|
G|-2---7-------|-2/4----7----| repeat until the end
D|-2---7-------|-2/4----7----|
A|-0---5-------|-0/2----5----|
E|-------------|-------------|


Lead Part
E-17-17-17-16-16-16-17-17-17-17-17-14-14-17-17-|
B----------------------------------------------| repeat until the end
G----------------------------------------------|
D----------------------------------------------|
A----------------------------------------------|
E----------------------------------------------|				



A B C# D E F#
variations - click chord images
Transpose chords:
Tuning:
Cool service:
View: Size:
A  A  A
Rating:
Layout:
  • Currently 3.8/5 Stars.
  • 1
  • 2
  • 3
  • 4
  • 5
 
Accuracy:
  • Currently 3/5 Stars.
  • 1
  • 2
  • 3
  • 4
  • 5
 
click stars to rate
Chordie recommends:
Learn to play guitar with video-based, online guitar lessons at JamPlay.com
Songbook:
Login to add this song to your songbook
Support the artist
Preview/buy this song
MSN Music
Why this non-profit ad?

 
login to add comments/video/corrections