Chordie logo


Love To Love   Zwan



Zwan - Love To Love (solo)

These are my two versions of the solo.
The first is the correct sounding version, the second sounds also pretty cool, but it 
fit a 100%.

Solo 1:

E|---------------------------------------------------------------------|
B|---------------------------------------------------------------------|
G|---------------------------------------------------------------------|
D|--5---5--4-----------------------5--7--5-4---------------------------|
A|------------5------------------------------5-------------------------|
E|---------------5--5---3-5-3-/7----------------5--7-5-3-5-7-0---------|

E|---------------------------------------------------------------------|
B|---------------------------------------------------------------------|
G|---------------------------------------------------------------------|
D|--5---5--4-----------------------5--7--5-4---------------------------|
A|------------5------------------------------5-------------------------|
E|---------------5--5---3-5-3-/7----------------5--7-0-----------------|

Solo 2:

E|--3---3--2-----------------------3--5--3-2---------------------------|
B|------------3------------------------------3-------------------------|
G|---------------2--2---0-3-0-/4----------------2--4-2-0-2-4-----------|
D|-----------------------------------------------------------2---------|
A|---------------------------------------------------------------------|
E|---------------------------------------------------------------------|

E|--3---3--2-----------------------3--5--3-2---------------------------|
B|------------3------------------------------3-------------------------|
G|---------------2--2---0-3-0-/4----------------2--4-------------------|
D|---------------------------------------------------2-----------------|
A|---------------------------------------------------------------------|
E|---------------------------------------------------------------------|

Any questions...mail me. ;)


Important: The song above is NOT stored on the Chordie server. The original song is hosted at www.guitaretab.com. Chordie works as a search engine and provides on-the-fly formatting. Chordie does not index songs against artists/composers will. To remove this song please click here.

This song is displayed as text-only. Transposing and tuning is only available for chordpro-songs.

Login - add to songbook

Rating click stars to rate

Layout
Accuracy

SHARE PAGE  




You need to log in to post comments