Guitar Tabs, Chords and Lyrics


Endless Summer   Zwan



Artist: Zwan
Song: Endless Summer
Album: Mary Star of the Sea
Tabbed By: David Higgason
Posted By: Alex Garcia



| /  slide up
| \  slide down
| h  hammer-on
| p  pull-off
| ~  vibrato
| b  Bend
|(#) Bend to this note 



(2:44)

e|-----------------------------------------------------------------------|
B|-------------------------------------------------------------12--------|
G|---11b(13)b11p9--------------------9----11b(13)b11p9--9h11/13--11~-----|
D|---------------11p9-------------/11-----------------11-----------------|
A|-------------------11p10p9\7-------------------------------------------|
E|-----------------------------------------------------------------------|

bend up on e string 
then hit A string on the bend down
               V
e|-------12-14b-----12---------------------------------------------------|
B|--12h14------b14----12-------------------------------------------------|
G|----------------------13~~---------13h14p13-11h13p11\9--9h11/13--------|
D|------------------------------------------------------11-------11~-----|
A|-----------------------------------------------------------------------|
E|-----------------------------------------------------------------------|

e|--12-12-11-11----------------------------------------------------------|
B|-------------12-12-10p9h10p9--9----12----------------------------------|
G|----------------------------11-11b(13)b11~-----------------------------|
D|-----------------------------------------------------------------------|
A|-----------------------------------------------------------------------|
E|-----------------------------------------------------------------------|

    up down up bend (fast)
           V
e|------------------------------------------------------------------------------|
B|--17b(19)b(17)b(19)-17--19/21------16h17p16p14-16--14b(16)b(14)-12--12-14/19b-|
G|----------------------18-----18-----------------------------------13----------|
D|------------------------------------------------------------------------------|
A|------------------------------------------------------------------------------|
E|------------------------------------------------------------------------------|

Long bend on 19th fret   
Listen to the song, you will understand
                                              
e|--------------------------------------------------------------19b(21)-19~-17p16h17p16--12-11~~-|
B|--19b(21)20b21-20b21-20b21-20b21-20b21-20b21---19b(21)b(19)\17---------------------------------|
G|-----------------------------------------------------------------------------------------------|
D|-----------------------------------------------------------------------------------------------|
A|-----------------------------------------------------------------------------------------------|
E|-----------------------------------------------------------------------------------------------|

e|-------------------------------------------|
B|-------------------------------------------|
G|---8h9p8p6h8-------------------------------|
D|-------------6p4\2-4\2-1h2p1---------------|
A|----------------------------2bb------------|
E|--------------------------Slow Bend--------|





Important: The song above is NOT stored on the Chordie server. The original song is hosted at www.guitaretab.com. Chordie works as a search engine and provides on-the-fly formatting. Chordie does not index songs against artists/composers will. To remove this song please click here.

This song is displayed as text-only. Transposing and tuning is only available for chordpro-songs.

Login - add to songbook

Rating click stars to rate

Layout
Accuracy

SHARE PAGE  




You need to log in to post comments