Chordie logo


Loola Loo   Keb Mo



Keb' Mo' - Loola Loo

From the album 'The Door'

There just aren't enough Keb' Mo' tabs out there so here is the tab for Loola Loo, which I
worked out from the CD.

You will need to put a capo on the third fret, tab relative to capo. 


Intro riff:

|----------------------------|
|------------------1---------|
|--4b--5---------------0h2---|
|----------5----2------------|
|----------------------------|
|----------------------------|

Verse - 'I'm lookin' out my window...'

|---------------------------0----3-|----------------------------3----|
|--1---------------------3-------1-|----------------------------0----|
|--0-------------------------------|---------------------------------|
|------2-------2------2-------2----|------2-------2-------2-------2--|
|--3-------3------3------3---------|--3-------3-------3-------3------|
|----------------------------------|---------------------------------|

|-----------------------------------1--|----------------------3----0--3--|
|--1-----------------3-------1h3----0--|----------------------1----1--0--|
|--2-----------------2-----2-----------|---------------------------------|
|------3--------3--------3--------3----|------2-------2-------2-------2--|
|--------------------------------------|--3-------3-------3-------3------|
|--1--------1------1---------1---------|---------------------------------|

'I said hey, hey, hey, hey...'

|--3----------3-----2---------1--------|--------------------------6------|
|--3----------------2---------1--------|--4---------4-----3--------------|
|--4----------------3---------2--------|--6---------------5--------------|
|------5--------5--------4--------3----|------5-------5-------4-------4--|
|--------------------------------------|--6-------6-------5-------5------|
|--3--------3-------2---------1--------|---------------------------------|

|--3-------------------------------------------------------|
|-------------0------1-------------------------------------|
|-----------3--------0-------------------------------------|
|-------0--------0-----------2-------2--------2--------2---|
|-----------------------3--------3-------3---------3-------|
|--3--------3----------------------------------------------|

Chorus - 'Loola Loo don't leave me...'

|--------------------------------------|--------------------------------------|
|--1----------3------1-----------1-----|-------1----3p1------------------1----|
|--2-----------------------------------|-------2----2-----0-------------------|
|------3--------3--------2---------2---|-------3--------3---------2--------2--|
|--------------------3---------3-------|----------------------3--------3------|
|--1--------1--------------------------|--1---------1-------------------------|


|--------------------------------------|--------------3--------3--------------|
|--1----------3------1-----------1-----|--3-------------------------------3---|
|--2-----------------------------------|--------------------0-----------------|
|------3--------3--------2---------2---|-------0---------0----------0-------0-|
|--------------------3---------3-------|--------------------------------------|
|--1--------1--------------------------|--3---------3----------3--------3-----|

Bridge - 'Well maybe she just needs some time alone...'

|--------------------------------------|--------------------------------------|
|---5----------5-------4---------4-----|---0-------------3---------------0----|
|---5----------5-----------------4-----|---0-------------0---------------0----|
|--------3--------3--------3--------3--|--------2--------2---------2-------2--|
|---5--------5-------------------------|---3--------3---------3--------3------|
|----------------------3-------3-------|--------------------------------------|

|---------------------------0----3-----|--------------------------------------|
|---1---------------------3-------1----|---3---------3---------3---------3----|
|---0----------------------------------|---0---------------0----------------0-|
|--------2--------2--------2-------2---|-------4--------4---------4-------4---|
|---3--------3---------3------3--------|---5-------5---------5--------5-------|
|--------------------------------------|--------------------------------------|

|--------------------------------------|--------3----3------3----------3------|
|-----3--------3---------3-------3-----|--------------------------------------|
|------------------0-----------------0-|--------------------------------------|
|-------4--------4---------4-------4---|--------0--------0-------0---------0--|
|---5-------5---------5--------5-------|--------------------------------------|
|--------------------------------------|---3-------3--------2-------2---------|

|---3----------3-----------------------|
|---------------------------------3----|
|-----------------------------0--------|
|--------0-------0--------0------------|
|--------------------------------------|
|---1-------1---------3----------------|




Important: The song above is NOT stored on the Chordie server. The original song is hosted at www.guitartabs.cc. Chordie works as a search engine and provides on-the-fly formatting. Chordie does not index songs against artists/composers will. To remove this song please click here.

This song is displayed as text-only. Transposing and tuning is only available for chordpro-songs.

Login - add to songbook

Rating click stars to rate

Layout
Accuracy

SHARE PAGE  




You need to log in to post comments