eToCache5 = ""; ?> Himig Natin by Juan Dela Cruz Band - guitar chords, guitar tabs and lyrics - chordie

Himig Natin

Juan Dela Cruz Band

 Emaj7Amaj7
      0 7 6 4 4 4          x 0 2 2 2 4

Intro
 Emaj7Amaj7
||--------4-(4)---7-4--|-------4-(4)-2-4-2--|
||o-------4-(4)---4-4--|-------2-(2)-2-2-2--|
||--------4-(4)---4-4--|-----2-------2-2-2--|
||------6-------6------|---2----------------|
||o---7----------------|-0------------------|
||--0------------------|--------------------|


 Emaj7Amaj7
 |-------4-(4)---7-4--|-------4-(4)-2-4-2---||
|-------4-(4)---4-4--|-------2-(2)-2-2-2--o||
|-------4-(4)-4-4-4--|-----2-------2-2-2---||
|-----6-------6------|---2-----------------||
|---7---------7------|-0------------------o||
|-0------------------|---------------------||


Verse

|-------0-(0)---0-0-0-|-------0-(0)---0-0-0-|
|-------0-(0)---0-0-0-|-------2-(2)---2-2-2-|
|-------1-(1)-1-1-1-1-|-----1-1-(1)-1-1-1-1-|
|-----2-------2-2-----|---2---------2-2-----|
|---2-----------------|-0-------------------|
|-0-------------------|---------------------|
|-------0-(0)---0-0--|-------0-(0)---0-0-0-|
|-------0-(0)---0-0--|-------2-(2)---2-2-2-|
|-------1-(1)-1-1-1--|-----1-1-(1)-1-1-1-1-|
|-----2-------2-2----|---2---------2-2-----|
|---2----------------|-0-------------------|
|-0------------------|---------------------|
|-------0-(0)---0-0-0-|-------0-(0)---0-0--|
|-------0-(0)---0-0-0-|-------2-(2)---2-2--|
|-------1-(1)-1-1-1-1-|-----1-1-(1)-1-1-1--|
|-----2-------2-2-----|---2---------2-2----|
|---2-----------------|-0------------------|
|-0-------------------|--------------------|
|-------0-(0)---0-0--|-------0-(0)---0-0-0--||
|-------0-(0)---0-0--|-------2-(2)---2-2-2--||
|-------1-(1)-1-1-1--|-----1-1-(1)-1-1-1-1--||
|-----2-------2-2----|---2---------2-2------||
|---2----------------|-0--------------------||
|-0------------------|----------------------||


Pre-Chorus
||--2--2--2-2-2-2-2-|-0--0--0-----0---|-2--2--2-2-2-2-2-|-0--0--0-----0---|
||o-4--4--4-4-4-4-4-|-2--2--2-----2---|-4--4--4-4-4-4-4-|-2--2--2-----2---|
||--4--4--4-4-4-4-4-|-2--2--2-2-2-2-2-|-4--4--4-4-4-4-4-|-2--2--2-2-2-2-2-|
||--4--4--4-4-4-4-4-|-2--2--2-2-2-2-2-|-4--4--4-4-4-4-4-|-2--2--2-2-2-2-2-|
||o-2--2----2-2-2---|-0--0--0-0-0-0-0-|-2--2----2-2-2---|-0--0--0-0-0-0-0-|
||------------------|-----------------|-----------------|-----------------|


Chorus I
|-------4-(4)---7-4--|-------4-(4)-0-4-0--|
|-------4-(4)---4-4--|-------2-(2)-2-2-2--|
|-------4-(4)---4-4--|-----2-------2-2-2--|
|-----6-------6------|---2----------------|
|---7----------------|-0------------------|
|-0------------------|--------------------|


To Coda D.S. al Coda
|-------4-(4)---7-4--|-------4-(4)-0-4-0----||
|-------4-(4)---4-4--|-------2-(2)-2-2-2---o||
|-------4-(4)---4-4--|-----2-------2-2-2----||
|-----6-------6------|---2------------------||
|---7----------------|-0-------------------o||
|-0------------------|----------------------||


Chorus II
|--------------------------|-----------------------------|
|--------------------------|-----------------------------|
|--------------------------|------------------9h11--11-9-|
|-----------------9--11----|-9-------(9)-9-11------------|
|-----------------------11-|-----------------------------|
|--------------------------|-----------------------------|

|
|
|-------4-(4)-0-4-0--------|-------4-(4)------7--4-------|
|-------2-(2)-2-2-2--------|-------4-(4)------4--4-------|
|-----2-------2-2-2--------|-------4-(4)------4--4-------|
|---2----------------------|-----6-------6---------------|
|-0------------------------|---7-------------------------|
|--------------------------|-0---------------------------|
|--------------------------------------|-----------------------------------|
|---------------------9h10-10-9--10-12-|-(12)-------------12---------------|
|-11h13----(13)------------------------|--------9-(9)---9-----9---9--11----|
|--------------------------------------|--------------------------------9--|
|--------------------------------------|-----------------------------------|
|--------------------------------------|-----------------------------------|

|
|---------------4-(4)-0-----4-0--------|--------------4---(4)---7-4--------|
|---------------2-(2)-2-----2-2--------|--------------4---(4)---4-4--------|
|------------2--------2-----2-2--------|--------------4---(4)---4-4--------|
|--------2-----------------------------|-----------6----------6------------|
|--0-----------------------------------|------7----------------------------|
|--------------------------------------|---0-------------------------------|
|-------------------------------------|-------------------------------------------|
|-------------------------------------|--------------------------------------9-10-|
|----9--------------------------------|------------------------9-11----9-11-------|
|-11---11-9-7-9---9-(9)---------------|----9-11----11----9-11-------11------------|
|-----------------------7-9---------9-|-11------11--------------------------------|
|---------------------------7-9--12---|-------------------------------------------|

|
|
|---------------4---(4)---0-4-0-------|----------------4---(4)---------7--4-------|
|---------------2---(2)---2-2-2-------|----------------4---(4)---------4--4-------|
|-----------2-------------2-2-2-------|----------------4---(4)---------4--4-------|
|-------2-----------------------------|-------------6-------------6---------------|
|--0----------------------------------|-------7-----------------------------------|
|-------------------------------------|--0----------------------------------------|
|----------------------------------------------|
|----9-10-9------------------------12--14------|
|-11--------11-9-11-----9-11-11-13--------13---|
|-------------------11-------------------------|
|----------------------------------------------|
|----------------------------------------------|

|
|
|--------------4----(4)----0-----4--0----------|
|--------------2----(2)----2-----2--2----------|
|---------2----------------2-----2--2----------|
|-------2--------------------------------------|
|--0-------------------------------------------|
|----------------------------------------------|


Gtr II
-|
|-10-14----------14----14----------14----14-------|
|-------------------------------------------------|
|-------------------------------------------------|
|-------------------------------------------------|
|-------------------------------------------------|
|-12-14-12-14------14-12-14-16-16h17-17p16--|
|----14---------14--------------------------|
|-------------------------------------------|
|-------------------------------------------|
|-------------------------------------------|
|-------------------------------------------|
|-17p16----------------------------------14h16-|
|-------17-------------------------17h19-------|
|----------16-(16)-16---(16)-16h18-------------|
|----------------------------------------------|
|----------------------------------------------|
|----------------------------------------------|
|-17p16----------------------------------14h17-------|
|-------17-------------------------14h17-------------|
|----------16-(16)-16---16-(16)-16-------------------|
|----------------------------------------------------|
|----------------------------------------------------|
|----------------------------------------------------|
|-17-17-17-19------------19------19---19-|
|----------------17-(17)------17---------|
|----------------------------------------|
|----------------------------------------|
|----------------------------------------|
|----------------------------------------|
|-21b23r(21)-19-19-16-19b21-16-16-14p12----12-14-|
|---------------------------------------14-------|
|------------------------------------------------|
|------------------------------------------------|
|------------------------------------------------|
|------------------------------------------------|
|-16-16-(16)-14-12-14-12----12-------|
|------------------------14----14-12-|
|------------------------------------|
|------------------------------------|
|------------------------------------|
|------------------------------------|
|----------------------------------------------|
|-12S14-14-------12-12-(12)--------------------|
|----------11h13------------13-11p9-11----9-11-|
|--------------------------------------11------|
|----------------------------------------------|
|----------------------------------------------|
|----------------------------------|-------------------------------------12---|
|----------------------------------|-----------------9-(9)----9-10-12h14------|
|-9-9----11-9-11-9-11----9-11-9----|-11----9-11-9-11-------11-----------------|
|-----11--------------11--------11-|----11------------------------------------|
|----------------------------------|------------------------------------------|
|----------------------------------|------------------------------------------|
|-16-14-12-14-12----12-(12)----------------12-14-|
|----------------14---------14-12-14-12-14-------|
|------------------------------------------------|
|------------------------------------------------|
|------------------------------------------------|
|------------------------------------------------|
|-14b16r(14)-14b16r(14)-12-14---12-(12)----12---------------|
|---------------------------------------14----14-12---12----|
|--------------------------------------------------------13-|
|-----------------------------------------------------------|
|-----------------------------------------------------------|
|-----------------------------------------------------------|
|-----------------------------------------------------------------|
|-12-12h14p12----12-12h14p12----12---12h14p12----12---12h14p12----|
|-------------13-------------13---------------13---------------13-|
|-----------------------------------------------------------------|
|-----------------------------------------------------------------|
|-----------------------------------------------------------------|


 Amaj7
|------------------------------------------|
|-12-12S10-10S9-9S10-10S12-12S10-10S9-9S10-|
|------------------------------------------|
|------------------------------------------|
|------------------------------------------|
|------------------------------------------|


 Emaj7
|-9--------------------------------------|
|---11-9-11-9----9-----------------------|
|-------------11---11--9-11------9-------|
|---------------------------9-11----11-9-|
|----------------------------------------|

|
|
|-4---------4--4---(4)----4----7-4-------|
|-4---------4--4---(4)----4----4-4-------|
|-4---------4--4---(4)----4----4-4-------|
|-6---------6-------------6--------------|
|-7--------------------------------------|
|-0--------------------------------------|


 Amaj7Emaj7
|-------------------------------|-------------------------------------|
|-------------------9-(9)----12-|-14---12----12-14--12-(12)----12-14--|
|-------------------------------|-------------------------------------|
|-------------------------------|-------------------------------------|
|-7-9h11-11p9-7-(7)-------------|-------------------------------------|
|-------------------------------|-------------------------------------|

|
|
|-------------4-(4)-2--4--2-----|----------4----(4)------7--4---------|
|-------------2-(2)-2--2--2-----|----------4----(4)------4--4---------|
|---------2---------2--2--2-----|----------4----(4)------4--4---------|
|---2---------------------------|-------6------------6----------------|
|-0-----------------------------|----7--------------------------------|
|-------------------------------|--0----------------------------------|


 Amaj7
|---------12-14-(14)--------12-14-|
|-12---14-------------------------|
|---------------------------------|
|---------------------------------|
|---------------------------------|
|---------------------------------|

|
|
|-------------4--(4)-2-4-2--------|
|-------------2--(2)-2-2-2--------|
|-------2------------2-2-2--------|
|----2----------------------------|
|--0------------------------------|
|---------------------------------|


 Emaj7
|-12-------------------------------------------|
|----14---12-(12)-------12------------------12-|
|-----------------13-14-----14-13-14-13--14----|
|----------------------------------------------|
|----------------------------------------------|
|----------------------------------------------|

|
|
|------------------4----(4)--------4--4--------|
|------------------4----(4)--------4--4--------|
|--------------6-------------6-----------------|
|-------7--------------------------------------|
|--0-------------------------------------------|


 Amaj7Emaj7
|------12-12p11-11-11p=9--9-9p7----7-7-|-------4-(4)----*|
|-(12)---------------------------------|-------4-(4)----*|
|--------------------------------------|-------4-(4)----*|
|--------------------------------------|-----6----------*|
|--------------------------------------|---7------------*|
|--------------------------------------|-0--------------*|

|
|
|----------------4----(4)-0---4-0------|-------4-(4)----*|
|----------------2----(2)-2---2-2------|-------4-(4)----*|
|-------------2-----------2---2-2------|-------4-(4)----*|
|-------2------------------------------|-----6----------*|
|---0----------------------------------|---7------------*|
|--------------------------------------|-0--------------*|


lyrics:

akoy nag-iisa
at walang kasama
di ko makita
ang aking pag-asa

chorus:

ang himig natin
ang inyong awitin
upang tayoy
magsama-sama
sa langit ng pag-asa

akoy may kaibigan
at siyay nahihirapay
handa na ba kayong lahat
upang siyay
tulingan

repeat chorus:

coda:

ang himig natin
ang inyong awitin
ang himig natin
inyong awitin

solo:


Amaj7 Emaj7
variations - click chord images
Transpose chords:
Tuning:
Cool service:
View: Size:
A  A  A
Rating:
Layout:
  • Currently 1/5 Stars.
  • 1
  • 2
  • 3
  • 4
  • 5
 
Accuracy:
  • Currently 0/5 Stars.
  • 1
  • 2
  • 3
  • 4
  • 5
 
click stars to rate
Chordie recommends:
Learn how to play guitar at JamPlay.com
Songbook:
Login to add this song to your songbook
Support the artist
Preview/buy this song
MSN Music
Why this non-profit ad?

 
login to add comments/video/corrections