eToCache5 = ""; ?> Jopay(acoustic Version) by Mayonnaise - guitar chords, guitar tabs and lyrics - chordie

Jopay(acoustic Version)

Mayonnaise

e|--------------------3---3--
B|--------------------3---3--
G|--------0--------0---------
D|------4--------2-----------
A|----5-------3----------3---
E|---------------------------

 AmBmCD
e|------0---------2-----3----5--
B|------1---------3-----3----5--
G|------2---------4-----5----7--•repeat•
D|------2---------4-----5----7--
A|------0---------2-----3----5--
E|------------------------------       

'wag ka ng mawala..ngayon..

 GAm
Dadalhin kita sa aming bahay
 BmC
  'di tayo magaaway
 GAmBmC
aalis tayo sa tunay na mundo    

•verse 2•
e|--------------------3---3--
B|--------------------3---3--
G|--------0--------0---------
D|------4--------2-----------
A|----5-------3----------3---
E|---------------------------

Jopay,kamusta na ba?
Buti ka pa,palagi ka'ng masaya.
Jopay,buti na lang..
Nariyan ka, hindi na ako nagiisa.

•repeat chorus•

•instrumental•
 EmDC
e|---0-----5----3----
B|---0-----5----3----
G|---x-----7----5----
D|---2-----7----5----
A|---2-----5----3----
E|---0-----x----x----
e|--------------------3---3--
B|--------------------3---3--
G|--------0--------0---------
D|------4--------2-----------
A|----5-------3----------3---
E|---------------------------


 AmBmCDCD
e|------0---------2-----3----5---3---5---
B|------1---------3-----3----5---3---5---
G|------2---------4-----5----7---5---7---
D|------2---------4-----5----7---5---7---
A|------0---------2-----3----5---3---5---
E|---------------------------------------


•repeat refrain & chorus•

•ending•
 GAmBmCDDDG
e|--3--0--2--3--5-5-5--3----
B|--3--1--3--3--5-5-5--3----
G|--0--2--4--5--7-7-7--0----
D|--0--2--4--5--7-7-7--0----
A|--2--0--2--3--5-5-5--2----
E|--3--x--x--x--x-x-x--3----


(pakinggan nyo n lng ung kanta
pra s struming......pa-add n rin sa
friendster....klaskycsupo21@yahoo.com.../geegee)



Am Bm C D Em G
variations - click chord images
Transpose chords:
Tuning:
Cool service:
View: Size:
A  A  A
Rating:
Layout:
  • Currently 3/5 Stars.
  • 1
  • 2
  • 3
  • 4
  • 5
 
Accuracy:
  • Currently 3/5 Stars.
  • 1
  • 2
  • 3
  • 4
  • 5
 
click stars to rate
Chordie recommends:
Check out JamPlay.com for online video guitar lessons
Songbook:
Login to add this song to your songbook
Support the artist
Preview/buy this song
MSN Music
Why this non-profit ad?

 
login to add comments/video/corrections