I Love You

Saigon Kick

 BB
 i may not be the man i wanted to 
 B6B6
 i may not be the king of wit 
 BB
 i may not know the things you need to know 
 B4B4
 i might not measure up quite yet 
 BB
 i may not have the grace of fred astaire
 B6B6
 i may not have the mind of yung 
 BB
 i cannot buy the things you need to have 
 B4B4
 but there's something you can't forget 
 BB
 i love you 
 B6B6
 i love you 
 BB
 through the fires, and all the hell, it's something i can't stop
 B4B4
 i love you 
 BB
 it may not seem that i care enough
 B6B6
 i may not take the time to say 
 BB
 you can't leave me standing here alone 
 B4B4
 until you hear what i have to say  
 BB
 i love you 
 B6B6
 baby, i love you 
 BB
 through the fires and all the hell, it's somehing i can't stop
 B4B4
 i love you 
solo (same chords)
S S V
E-----------------------------------------------------------------------------
--------------------------------------
B-----------------------------------------------------------------------------
--------------------------------------
G-----------------------------------------------------------------------------
--------------------------------------
D-----------------------------------------------------------------------------
--------------------------------------
A--------9-----2-----9------14-----16-----14----------------------------------
-------------------------------
E-----------------------------------------------------------------------------
--------------------------------------

S V
E-----------------------------------------------------------------------------
--------------------------------------
B-----------------------------------------------------------------------------
--------------------------------------
G-----------------------------------------------------------------------------
--------------------------------------
D---------6-----13------18----20---18-----------------------------------------
--------------------------------
A-----------------------------------------------------------------------------
--------------------------------------
E-----------------------------------------------------------------------------
--------------------------------------

V V
E-----------------------------------------------------------------------------
--------------------------------------
B----------------19----------17--------------16---17--16-14--16-16--14--12--14
--12----------------
G--------16-------------16-------------16-------------------------------------
----------------------------------
D---16--------------16-------------16-----------------------------------------
----------------------------------
A-----------------------------------------------------------------------------
--------------------------------------
E-----------------------------------------------------------------------------
--------------------------------------

then it goes back to the "i love you" part.
the rythym is a bit hard at first, and to sing while playing it is very hard.
if you have a second guitar player or bass, single notes or power chords can
be played like this:
guitar 1 B
guitar 2(bass) B
guitar 1 B6
guitar 2 Gguitar 1 B
guitar 2 Fguitar 1 B4
guitar 2 E
that's it! good luck!

B B4 B6
variations - click chord images
Transpose chords:
Tuning:
Cool service:
View: Size:
A  A  A
Rating:
Layout:
  • Currently 0/5 Stars.
  • 1
  • 2
  • 3
  • 4
  • 5
 
Accuracy:
  • Currently 0/5 Stars.
  • 1
  • 2
  • 3
  • 4
  • 5
 
click stars to rate
Chordie recommends:
Learn to play guitar with video-based, online guitar lessons at JamPlay.com
Songbook:
Login to add this song to your songbook
Support the artist
Preview/buy this song
MSN Music
Why this non-profit ad?

 
login to add comments/video/corrections