Chordie logo


Rock N Roll Hoochie Coo   Rick Derringer








Rock 'n' Roll, Hoochie Coo
Rick Derringer

Tab by Jeff A

E-mail :  IggyJeff1@home.com

~ = Hammer-on
$  = Muffled-String Scratch

Intro:

E---------------------------------------------------------------------------------------------------------------------------
B---------------------------------------------------------------------------------------------------------------------------
G-------------------------------------------------------5------------------------------------------------------------------
D------------------------------------------------5~7-----7--5--7--------------------5----------------------------------
A--3--3--5--3----5--5--7--5----7--7--5~7------------------------3--3--5--3----3----5---7-------------------------
E--1--1--1--1----3--3--3--3----5--5-------------------------------1--1--1--1----------3---5-------------------------
 							      Scratch for 1 measure


E----------------------------------------------------------------------------------------------
B----------------------------------------------------------------------------------------------
G----------------------------------------------------------------------------------------------
D----------------------------------------------11~12--11~12--11~12--11~12--11~12-
A------------4~5--4~5--4~5--4~5--4~5--------------------------------------------------
E---5--3--0-----------------------------------------------------------------------------------
	Let open E ring ......................................................................................


Verse:


E------------------------------------------------------------------------------------------------------------------------  
B------------------------------------------------------------------------------------------------------------------------ 
G------------------------------------------------------------------------------------------------------------------------
D----------------5--7---5--------7--7--5---------------7-----------------5--7--5-------7--7--5--------------------
A---7--7---7---3---5---3---7-------------7--6--5-----------7--7--7----3--5--3---7-------------7--6--5----------
E---5--5---5-----------------5-----------------------8--------5--5--5---------------5------------------------8--5---

(Repeat above, then go to chorus)


Chorus:


E-------------------------------------------------------------------------------------------------------------------------------------------
B-------------------------------------------------------------------------------------------------------------------------------------------
G-------------------------------------------------------5---------------------------------------------------------5------------------------
D------------------------------------------------5~7-----7--5--7-----------------5----------------------5~7-----7--5--7--------------
A---3--3--$--$---5---5--$--$---7--7---5~7----------------------3---3--$--$---3---5---7--7---5~7----------------------------------
E---1--1--$--$---3---3--$--$----5--5-----------------------------1---1--$--$--------3---5--5-----------------------------------------


E---------------------------------------------------------------------------------------------------------------------------
B---------------------------------------------------------------------------------------------------------------------------
G-------------------------------------------------------5------------------------------------------------------------------
D------------------------------------------------5~7-----7--5--7------------------5-------------------------------------
A---3--3--$-$---5---5--$--$----7--7---5~7----------------------3---3--$--$----3---5---7----------------------------
E---1--1--$-$---3---3--$--$----5--5------------------------------1---1--$--$---------3---5----------------------------
							                Scratch for 1 measure        .


E----------------------------------------------------------------------------------------------
B----------------------------------------------------------------------------------------------
G----------------------------------------------------------------------------------------------
D----------------------------------------------11~12--11~12--11~12--11~12--11~12-
A------------4~5--4~5--4~5--4~5--4~5--------------------------------------------------
E---5--3--0-----------------------------------------------------------------------------------
	Let open E ring ......................................................................................




Important: The song above is NOT stored on the Chordie server. The original song is hosted at www.guitartabs.cc. Chordie works as a search engine and provides on-the-fly formatting. Chordie does not index songs against artists/composers will. To remove this song please click here.

This song is displayed as text-only. Transposing and tuning is only available for chordpro-songs.

Login - add to songbook

Rating click stars to rate

Layout
Accuracy

SHARE PAGE  




You need to log in to post comments