eToCache5 = ""; ?> Don T Tell Me You Love Me by Night Ranger - guitar chords, guitar tabs and lyrics - chordie

Don T Tell Me You Love Me

Night Ranger

E-------0----------------------0----------------
B------------4-----------------------2----------
G--4---------------4------2---------------2-----
D-----------------------------------------------
A-----------------------------------------------
E-----------------------------------------------

##
E-----------------------------------------------
B-----------------------------------------------
G-----------------------------------------------
D--4--4--4--4--4---4--4----4---4--4--4--4--4--4-
A--4--4--4--4--4---4--4----4---4--4--4--4--4--4-
E--2--2--2--2--2---2--2----2---2--2--2--2--2--2-

##
It ain't the way you move E---------------------
                          B--7--7---5---7--7----
                          G--8--8---6---8--8----
                          D--9--9---7---9--9----
                          A---------------------
                          E---------------------

It ain't the way that you m[F#m]ove [E]me[F#m] [E] [F#m]Oh n[E]o [F#m] [E]
A5 (Riff 1)
It ain't the way you shake

 F#mEF#mEF#mEF#mEF#m
It ain't the way that you shake me    oh no     I lived

 D5E5D5C#5
Twenty-five years I'm a kid on the run

 B5
I gotta pick up her action

 D5F#mDE
Don't tell me you love me don't tell me you love me

C# D A Bm (F#5 Riff Twice)
Don't tell me I don't wanna know

A5 (Riff 1)
I love the way you use

 F#mEF#mEF#mEF#mEF#m
I love the way that you use me      oh yeah      

A5 (Riff 1)
I love the way you shoot

 F#mEF#mEF#mEF#m
I love the way that you shoot to kill me oh yea 

 F#mD5E5D5
 I've taken miles of lives to learn the right

 C#5B5
From the wrong I'll keep you hangin' on

 D5F#mDE
So don't tell me you love me don't tell me you love me

 C#DABm
Don't tell me I don't wanna know

 D5F#mDE
Don't tell me you love me don't tell me you love me

 C#DABm
Don't tell me I don't wanna know

 F#m
E-----------------------------------------------
B-----------------------------------------------
G-----------------------------------------------
D--11---7--(11)---11--9--7--11--9--7---11--9--7-
A-----------------------------------------------
E-----------------------------------------------


 DE
E--9^1/2----------------------------------------
B-----------------------------------------------
G-----------------------------------------------
D---------11--7--11--9--7---(9)---9--11--9--11--
A-----------------------------------------------
E-----------------------------------------------


 C#
E-----------------------------------------------
B-----------------------------------------------
G-----------------------------------------------
D--9--7--9--7---6--7---6--7---9--9--11--9--7--9-
A-----------------------------------------------
E-----------------------------------------------
E-----------------------------------------------
B-----------------------------------------------
G-----------------------------------------------
D--7--6--7---6--4--6--4---6--4--3---4--3--4--3--
A-----------------------------------------------
E-----------------------------------------------


 Bm
E-----------------21--19------------19----------
B--------------------------22--21--------22--21-
G-----------------------------------------------
D-----------------------------------------------
A--4--2--2--0-----------------------------------
E-----------------------------------------------


 D
E-------------------------------------19--21-22-
B--19--22--21--19--------19--21--22-------------
G-------------------21--------------------------
D-----------------------------------------------
A-----------------------------------------------
E-----------------------------------------------


 BABBABB
E-----------------------------------------------
B-----7---8---10---7---8----7--5--7--7--5--7--7-
G--9------------------------8--6--8--8--6--8--8-
D---------------------------9--7--9--9--7--9--9-
A-----------------------------------------------
E-----------------------------------------------


(Riff 1 Six Times)

Riff 1 With F# Bass B Bass
Don't tell me you love me don't tell me you love me

 ABass
 Don't tell me you love me you love me love me yeah

 F#mDEC#DABm

 D5F#mDE
Don't tell me you love me don't tell me you love me

 C#DABm
Don't tell me I don't wanna know

 DF#mDEC#DABmDF#mDEC#DABmG
 F#5F#5F#5F#5F#5F#5


A B B5 Bm C# C#5 D D5 E E5 F#5 F#m G
variations - click chord images
Transpose chords:
Tuning:
Cool service:
View: Size:
A  A  A
Rating:
Layout:
  • Currently 0/5 Stars.
  • 1
  • 2
  • 3
  • 4
  • 5
 
Accuracy:
  • Currently 0/5 Stars.
  • 1
  • 2
  • 3
  • 4
  • 5
 
click stars to rate
Chordie recommends:
Learn to play this song & others via video guitar lessons at JamPlay.com
Songbook:
Login to add this song to your songbook
Support the artist
Preview/buy this song
MSN Music
Why this non-profit ad?

 
login to add comments/video/corrections