Chordie logo

Halaga  Parokya Ni Edgar

b-----3-------------3---
g---2-----------------2-
d-0---------------------
a-----------------------
e-----------------------

#
e-------5-3-2-2h3-2---------------
b-1s3-3-------------3-3s5-3-2-2h3-
g---------------------------------
d---------------------------------
a---------------------------------
e---------------------------------

#
e-----0-2-3-2-0-2-----
b---3-------------3---
g-2-----------------2-
d---------------------
a---------------------
e---------------------

#
e-------5-3-2-2h3-2----------------
b-1s3-3-------------3-3s5-3-2-2h3b-
g----------------------------------
d----------------------------------
a----------------------------------
e----------------------------------

#
[D] u[A]mi[Bm]iya[G]k ka na naman...
[D] s[Bm]a p[A]ro[G]blema na iyong pinapasan...
[D] m[A]ay[Bm] kw[G]ento kang pandrama na naman...
[D] a[Bm]ng [A]pa[G]gtiyaga mo dyan sa boyfriend mong tanga...

CHORUS:
[D] s[G]a [Bm]lib[A]u-libong pagkakataon...

(then repeat intro)

[D] h[A]in[Bm]di [G]na dapat pag-usapan pa...
[D] s[Bm]a m[A]ga[G] payo kong 'di mo pinapansin...
[D] a[A]yo[Bm]ko [G]nang isipin pa...
[D] n[Bm]a l[A]al[G]ake na magmamahal sa'yo...
(repeat chorus)

SOLO TAB:

e----------------------------------------------
b-10-10-10-8-7-7h8--7-8-10--8-7-5----5---6s7-5-
g----------------------------------7---5-------
d----------------------------------------------
a----------------------------------------------
e----------------------------------------------
e-------------17-------------------------
b-------14-16----17-15-17-15-14-15-14-12-
g-12-14----------------------------------
d----------------------------------------
a----------------------------------------

e----------------------------------------
e--------------------------------
b-11-11-11-11-11-9-7-7h9--7-6-4b-
g--------------------------------
d--------------------------------
a--------------------------------
e--------------------------------


BRIDGE:
[D] m[Bm]ins[A]an[G] hindi ko maintindihan
[D] p[Bm]ara[G]ng[A] ang buhay natin ay napagtitripan
[D] m[Bm]edy[A]o [G]malabo yata ang mundo
[D] b[Bm]ina[G]ba[A]sura ng iba ang syang pinapangarap ko
(repeat chorus)
(repeat intro)

END!

Important: The song above is NOT stored on the Chordie server. The original song is hosted at www.guitartabs.cc. Chordie works as a search engine and provides on-the-fly formatting. Chordie does not index songs against artists/composers will. To remove this song please click here.

A Bm D G
variations - click chord images

Login - add to songbook

Transpose chords

Tuning

Rating click stars to rate

Layout
Accuracy

SHARE PAGE  

You need to log in to post comments