""; ?> Drift Away by Uncle Kracker - guitar chords, guitar tabs and lyrics - chordie

Drift Away

Uncle Kracker

E--------------------------||
B---7-9-7------------------||
G-8-------6h8p6------------||
D---------------9---9-9-9--||
S-------------------7---7--||
E-----------------------7--||
E---------14----------------------------|
B-14b(16)----14p12--------12-12-----12\-|
G-------------------11/13---------------|
D---------------------------------------|
A---------------------------------------|
E---------------------------------------|
E-7/11---7/9---7---|
B------------------|
G------------------|
D------------------|
A------------------|
E------------------|
E-15/16----14--12-11-----------------|
B-------11-----------12--------------|
G------------------------------------|
D------------------------------------|
A------------------------------------|
E------------------------------------|
E------------------------------|
B------------------------------|
G--------------------------4---|
D------------------2---2/6-----|
A------------2---2-------------|
E-0--0-2---2-------------------|
E----------------|
B----------------|
G----------------|
D-2--------------|
A---4-2----------|
E-------4-2-0----|

 EB
        Day after day I'm more confused
 EB
        Yet I look for the light though pouring rain
 EB
        You know that's a game that I hate to lose
[C
Chorus:

 B
        Oh, give me the beat, boys, and free my soul
        I [F        [B]Give me the beat, boys, and free my soul
I [F

 EB
        Won't you take me away

Re intro 1x w Riff2

Verse 2:

Beginning to think that I'm wastin' time
I don't understand the things I do
The world outside looks so unkind
I'm countin' on you you can carry me through

(repeat chorus) Riff 3

(repeat intro)

Bridge:

 B
        [C        [E]You know a melody can move me
 B
        [C        [E]The guitar's comin' through to [F        [E]Thanks for the joy that you've given me
 EB
        I want you to know that I believe in your song
 EB
        Rhythm and rhyme and harmony
[C
Chorus 1 - 2 part accapella 1x
Riff 4
Chorus 2 - 3 part accapella 1x
Riff 5
Chorus 3 - 3 part with band 2x
Riff 5

solo - 1 full chorus

wont you take me
wont you take me
I wanna drift away
wont you take me away
I wanna drift away
I wanna drift away
wont you take me
Take me home
Let me drift away
wont you take me away

Intro 1x

B E
variations - click chord images
Transpose chords:
Tuning:
Cool service:
View: Size:
A  A  A
Rating:
Layout:
  • Currently 0/5 Stars.
  • 1
  • 2
  • 3
  • 4
  • 5
 
Accuracy:
  • Currently 0/5 Stars.
  • 1
  • 2
  • 3
  • 4
  • 5
 
click stars to rate
Chordie recommends:
Check out JamPlay.com for online video guitar lessons
Songbook:
Login to add this song to your songbook
Support the artist
Preview/buy this song
MSN Music
Why this non-profit ad?

 
login to add comments/video/corrections