Sweet Georgia Brown

Ethel Waters

 F-133211
 Em - x79987
B - 799877
 A-577655
 -  x57775

Upbeat tempo

Intro:
^(1/4) ^(1/4)
e|-----------------------------|-----------------------------|
B|-------------2--5-5----2-----|-------------2--5-5----2-----|
G|----------2-4------------42--|---------\2-4------------42--|
D|------2-4--------------------|------2-4--------------------|
A|--2-4------------------------|-\2-4------------------------|
E|-----------------------------|-----------------------------|


 E7A7
e|-----------------------------|-----------0----0------------|
B|-----------0----0------------|-----------2----2------------|
G|--2----42--1----1------------|--2----42--0----0------------|
D|---------4-0----0------------|---------4-2----2------------|
A|-----------2----2------------|-----------------------------|
E|-----------------------------|-----------------------------|


 D7GG
e|-----------2----2------------|-----------3----3----
B|-----------1----1------------|-----------3----3-------3----3-|
G|--2----42--2----2------------|--2----42--4----4-------4----4-|
D|---------4-0----0------------|---------4-5----5-------5----5-|
A|-----------------------------|-----------5----5-------5----5-|
E|-----------------------------|-----------3----3-------3----3-|


Verse 1:

 E7
 She just got here yesterday. Things are hot here now they say.
 A7
 There's a big change in town. Gals are jealous; there's no doubt.
 D7
 Still the fellows rave about sweet, sweet Georgia Brown.
 GGbF
 And ever since she came, the colored folks all claim, "Say!"

Verse 2:

 E7
 No gal made has got a shade on sweet Georgia Brown.
 A7
 Two left feet, oh so neat, has sweet Georgia Brown.
 D7
 They all sigh and want to die for sweet Georgia Brown.
 GGbF
 I'll tell you just why; you know I don't lie, not much!

Verse 3: (The switch from Gb to F is much faster than in verse 2.)

 E7
 It's been said she knocks 'em dead when she lands in town.
 A7
 Since she came, why it's a shame how she cools them down.
 EmB
 Fellas she can't get
 EmB
Are fellas she ain't met!
 GEm
 Georgia claimed her; Georgia named her.
 ADGGbF
 Sweet Georgia Brown!    

Play Verse 2 twice without lyrics and then once again with lyrics followed by Verse 4:

 E7
 All those gifts some courtiers give to sweet Georgia Brown.
 A7
 They buy clothes at fashion shows with one dollar down.
 EmB
 Oh, boy! Tip you hat!
 EmB
 Oh, joy! She's the cat!
 GEm
 Who's that mister? 'taint your sister!
 ADGGbF
 Sweet Georgia Brown!    

Outro:

Alternate between verses 2 and 3 (without lyrics.)

This is my first tab. It's a fun song to play. I hope you enjoy it as much as I do!

Alternative lyrics...

SWEET GEORGIA BROWN

Georgia (Brown), Georgia (Brown)
Georgia (Brown), Georgia

Who's that chick in the yellow dress?
(Sweet Georgia Brown)
Well well well well, that's the girl that I love best
(Sweet Georgia Brown)
Who does the hop and the Texas bop like
(Sweet Georgia Brown)
Well, nobody, nobody, nobody else in town

Well, she's got the other chicks on the spot
(Sweet Georgia Brown)
Oh yeah, 'cause she's got somethin' they ain't got
(Sweet Georgia Brown)
When she goes to take a walk
You gotta want to make that girl talk
Georgia claimed her, Georgia lamed her
Sweet Georgia Brown

(instrumental)

Who stops the traffic down at 5th and Main?
(Sweet Georgia, Georgia Brown)
Who drives all the young lads insane?
(Sweet Georgia, Georgia Brown)
I ain't gonna leave this town
Long as Georgia's hangin' around
Georgia claimed her, Georgia lamed her
Sweet Georgia Brown


A A7 B D D7 E7 Em F G Gb
variations - click chord images
Transpose chords:
Tuning:
Cool service:
View: Size:
A  A  A
Rating:
Layout:
  • Currently 5/5 Stars.
  • 1
  • 2
  • 3
  • 4
  • 5
 
Accuracy:
  • Currently 5/5 Stars.
  • 1
  • 2
  • 3
  • 4
  • 5
 
click stars to rate
Chordie recommends:
Get acoustic guitar lessons and electric guitar lessons at JamPlay.com
Songbook:
Login to add this song to your songbook
Support the artist
Preview/buy this song
MSN Music
Why this non-profit ad?

 
login to add comments/video/corrections