Guitar Tabs, Chords and Lyrics
Major upgrade!! After one year development the new version of Chordie is now online! Please give feedback.


My Savior My God  Aaron Shust

Intro
[D]  
 
 ---------------------------------------------|
 ----10-10-10-10-\--8-8-8-\--6-6--\--3--------|
 ----11-11-11-11\--9-9-9-\--7-7--\--2--------|
 ---------------------------------------------|
 ---------------------------------------------|
 ---------------------------------------------|

[B]  
 
 ---------------------------------------------|
 ----10-10-10-10-\--8-8-8-\--6-6--\-----------|
 ----11-11-11-11\--9-9-9-\--7-7--\---4-------|
 -------------------------------------4-------|
 -------------------------------------2-------|
 ---------------------------------------------|

[A]  
 
 ---------------------------------------------|
 -------------------------2-------------------|
 ----2-2-2-2--2-2-2--2-2--2-------------------|
 ----5-5-5-5-h4-4-4-h2-2--2-------------------|
 ---------------------------------------------|
 ---------------------------------------------|

[D]  
 
 ---------------------------------------------|
 ----10-10-10-10-\--8-8-8-\--6-6--\--3--------|
 ----11-11-11-11\--9-9-9-\--7-7--\--2--------|
 ---------------------------------------------|
 ---------------------------------------------|
 ---------------------------------------------|

Verse 1
I am not skilled to understan[D]d
What God has willed, what God[Bm] has planned
I only know at his right hand[A]
Stands one who is my savior[D]
Verse 2
I take him at his word and deed
Christ died to save me this I read
And in my heart I find a need
For him to be my savior
Bridge
That he would leave his place on high[G]
And come for sinful man to di[D]e
You count it strange, so once did I[A]
Before I knew my savio[D]r
Chorus 2x
My savior lov[Bm]es, my savior lives[G]
My savior's a[D]lways there for [A]me
My God he w[Bm]as, my God he is[G]
My God he's al[D]ways gonna b[A]e
Verse 3
Yes, living, dying; let me bring
My strength, my solace from this spring
That he who lives to be my king
Once died to be my savior
Bridge
Chorus
Intro
Chorus
( Tab from: http://www.guitartabs.cc/tabs/a/aaron_shust/my_savior_my_god_tab_ver_3.html )

Important: The song above is NOT stored on the Chordie server. The original song is hosted at www.guitartabs.cc. Chordie works as a search engine and provides on-the-fly formatting. Chordie does not index songs against artists'/composers' will. To remove this song please click here.

Text color:
Chord color:
Chord grids: 
Font size:    
Page size: 

A B Bm D G
Rate #1 of 20 versions

Login - add to songbook

SHARE PAGE  




You need to log in to post comments