Guitar Tabs, Chords and Lyrics
Major upgrade!! After one year development the new version of Chordie is now online! Please give feedback.


Beautiful One  Jeremy Camp

Hi, this is my first shot at a tab. The Rhythm probably isn't right,
nor the hammer-ons and pull-offs i forgot to add but Oh well. Have fun!
P.S. for the intro, bar the first four strings at the second fret.
Intro
 
 e-----------------------5------------------------------------------|
 B-----2---2-3---3-5---5-----3-2------------------------------------|
 G-2-4---2-----2-----2-----2----------------------------------------|
 D------------------------------------------------------------------|
 A------------------------------------------------------------------|
 E------------------------------------------------------------------|
 e------------------------5-----------------------------------------|
 B------2---2-3---3-5---5-----3--5----------------------------------|
 G--2-4---2-----2-----2-----2---------------------------------------|
 D------------------------------------------------------------------|
 A------------------------------------------------------------------|
 E------------------------------------------------------------------|
 e------------------------------------------------------------------|
 B------------------------------------------------------------------|
 G--4-2-2--4-4--4---------------------------------------------------|
 D----------------2-2--2--2-----------------------------------------|
 A------------------------------------------------------------------|
 E------------------------------------------------------------------|

[G] [A] [Bm]  
 
 e------------------------------------------------------------------|
 B------------------------------------------------------------------|
 G--0--0-0-0-0-0-0--2--2-2-2-2-2-2--4--4-4-4-4-4-4------------------|
 D------------------------------------------------------------------|
 A------------------------------------------------------------------|
 E------------------------------------------------------------------|

( Tab from: http://www.guitartabs.cc/tabs/j/jeremy_camp/beautiful_one_tab.html )
[A/C#] [G] [A]  
 
 e------------------------------------------------------------------|
 B---2--2-2-3-3-2-2-2-----------------------------------------------|
 G----------------------0--0-0-0-0-0-0--2--2-2-2-2-2-2--------------|
 D------------------------------------------------------------------|
 A------------------------------------------------------------------|
 E------------------------------------------------------------------|

[D]  
 
 e------------------------------------------------------------------|
 B------------------------------------------------------------------|
 G------------------------------------------------------------------|
 D--0--0-0-0-0-0-0--0--0-0-0-0-0-0----------------------------------|
 A------------------------------------------------------------------|
 E------------------------------------------------------------------|

Verse
[G] [A] [D/F#] [G] [A] [Bm]  
 
 e------------------------------------------------------------------|
 B--0-----------------------------0---------------------------------|
 G-----22---------------------------22------------------------------|
 D--------44--22--0-4---2-0-4-4-0------44-22-0-4--------------------|
 A------------------------------------------------------------------|
 E------------------------------------------------------------------|

[G] [A] [D/F#] [G] [A] [D]  
 
 e------------------------------------------------------------------|
 B-----0----------------------------0------0--22--3-3---------------|
 G-------22---------------------------22-2--------------------------|
 D--0-------44--22-0--4-2-0-4-4--0----------------------------------|
 A------------------------------------------------------------------|
 E------------------------------------------------------------------|

Chorus
[G] [A] [G] [A] [G] [A] [D]  
 
 e--2-0----------0--2-0---------0--0---2-0----------0---2--2--------|
 B--3-2-2--3--2--2--3-2-2--3--3-2--2---3-2-2--3--2--2---3--3--------|
 G------2--4--2---------2--4--2------------2--4--2------------------|
 D------------------------------------------------------------0-----|
 A------------------------------------------------------------------|
 E------------------------------------------------------------------|


Important: The song above is NOT stored on the Chordie server. The original song is hosted at www.guitartabs.cc. Chordie works as a search engine and provides on-the-fly formatting. Chordie does not index songs against artists'/composers' will. To remove this song please click here.

Text color:
Chord color:
Chord grids: 
Font size:    
Page size: 

A A/C# Bm D D/F# G
Rate #1 of 15 versions

Jango Player

Login - add to songbook

SHARE PAGE  




You need to log in to post comments