Radar For Love

Kiss



--------------------

Transcribed by Emil Ortenmark, emil@kissasylum.com
Standard tuning
Comments: The end of Rhy. Fig 3 is the problem here. I can¥t hear what¥s
going on at all. Except for the E and D notes on the 2nd string I¥m lost.
I¥ve indicated two possible versions here, choose the one you find most
likely. Other than that, just put on your riffing shoes and play hard.
Key:
/ = slide up
\ = slide down
b = bend (whole step)
b^ = bend (1/2 step)
b^^ = bend (1 1/2 steps)
pb = pre-bend
r = release-bend
t = tap with righthand finger
h = hammer-on
p = pull-off
~ = Vibrato
* = Natural Harmonic

** = Artificial Harmonic
x = Dead notes (no pitch)
P.M. = Palm mute (- -> underneath indicates which notes)
(\) = Dive w\bar
(/) = Release w\bar
Tp = Tap w\plectrum
Rhythm Fig. 1
E|--------------------------------------------------------------|
B|--------------------------------------------------3-----------|
G|--------------------4--4--------------------------2---2-------|
D|--------------------2--2--------------------------0---2-------|
A|------------------------------------------------------0-------|
E|--3p0-3p0-3p0-3p0-0-------0-3p0-3p0-5p0-6p0-7p0-0--------3p0--|
E|--------------------------------------------------------------|
B|------------------------------------------------------3-------|
G|--------------------4--4--------------------------2---2--2----|
D|--------------------2--2--------------------------2---0--2----|
A|--------------------------------------------------0------0----|
E|--3p0-3p0-3p0-3p0-0-------0-3p0-3p0-5p0-6p0-7p0-0-------------|

Rhythm Fig. 2
E|--------------------------------------------------------------|
B|--------------------------------------------------------------|
G|--------------------------------------------------------------|
D|--2-----------------------------------------------------------|
A|--2-----------------------------------------------------------|
E|--0-------------------------------------------------0-3p0-----|
E|--------------------------------------------------------------|
B|--------------------------------------------------3------3----|
G|--------------------4--4--------------------------2---2--2----|
D|--------------------2--2--------------------------0---2--0----|
A|------------------------------------------------------0-------|
E|--3p0-3p0-3p0-3p0-0-------0-3p0-3p0-5p0-6p0-7p0-0-------------|
E|--------------------------------------------------------------|
B|--------------------------------------------------------------|
G|--------------------------------------------------------------|
D|--2-----------------------------------------------------------|
A|--2-----------------------------------------------------------|
E|--0-------------------------------------------------0-3p0-----|
E|--------------------------------------------------------------|
B|--------------------------------------------------3-----------|
G|--------------------4--4--------------------------2---2-------|
D|--------------------2--2--------------------------0---2-------|
A|------------------------------------------------------0-------|
E|--3p0-3p0-3p0-3p0-0-------0-3p0-3p0-5p0-6p0-7p0-0--------3p0--|
E|--------------------------------------------------------------|
B|--------------------------------------------------3------3----|
G|--------------------4--4--------------------------2---2--2----|
D|--------------------2--2--------------------------0---2--0----|
A|------------------------------------------------------0-------|
E|--3p0-3p0-3p0-3p0-0-------0-3p0-3p0-5p0-6p0-7p0-0-------------|

Rhythm Fig. 3
E|--------------------------------------------------------------|
B|-------2-----------------------2------------------------------|
G|--2-------2---------------2-------2---------------------------|
D|--2----------2------------2----------2------------------------|
A|--0-----------------------0-----------------------------------|
E|------------------0-3~----------------------------------------|
E|--------------------------------------------------------------|
B|--3------3------3---3-----3/5---------------------------------|
G|--0------2------0---2-----2/4--7-7-7-7/9\---7-7-7-7/9\--------|
D|--0------0--2---0---0--2-------7-7-7-7/9\---7-7-7-7/9\--------|
A|--x------x--2---x---x--2-------5-5-5-5/7\---5-5-5-5/7\--------|
E|--3------2--0---3---2--0--------------------------------------|
E|--------------------------------------------------------------|
B|-------2-----------------------2------------------------------|
G|--2-------2---------------2-------2---------------------------|
D|--2----------2------------2----------2------------------------|
A|--0-----------------------0-----------------------------------|
E|------------------0-3~----------------------------------------|

End 1 (let ring)
E|--------------------------------------------------------------|
B|---------------------5--------5--3--------3-------------------|
G|--2---------------------6-----------4-------------------------|
D|--2------------------------7-----------5----------------------|
A|--0-----------------------------------------------------------|
E|--------------------------------------------------------------|

End 2 (let ring)
E|--------------------------------------------------------------|
B|--2--------2--3--------3--5--------5--3--------3--------------|
G|-----2-----------0----------2-----------0---------------------|
D|--------2-----------0----------2-----------0------------------|
A|--------------------------------------------------------------|
E|--------------------------------------------------------------|

Rhythm Fig. 4a
E|--------------------------------------------------------------|
B|--------------------------------------------------------------|
G|--7---9-------------------7---9----------------0--------------|
D|--7---9------2p0----------7---9------2p0----------------------|
A|--5---7----------2-0------5---7----------2-0------------------|
E|---------------------3-0---------------------3----------------|
E|-------------------------------------5-5-5-5------------------|
B|-------------------------------------5-5-5-5------------------|
G|--7---9-------------------7---9------2-2-2-2------------------|
D|--7---9------2p0----------7---9-------------------------------|
A|--5---7----------2-0------5---7--------------0----------------|
E|---------------------3-0--------------------------------------|

Rhythm Fig. 4b
E|--------------------------------------------------------------|
B|--------------------------------------------------------------|
G|--7---9-------------------7---9----------------0--------------|
D|--7---9------2p0----------7---9------2p0----------------------|
A|--5---7----------2-0------5---7----------2-0------------------|
E|---------------------3-0---------------------3----------------|
E|--------------------------------------------------------------|
B|--------------------------------------------------------------|
G|--7---9-------------------7---9-------------------------------|
D|--7---9------2p0----------7---9-------------------------------|
A|--5---7----------2-0------5---7-------------------------------|
E|---------------------3-0-----------0-4p0-5p0-6/7~-------------|

Rhythm Fig. 4c
E|--------------------------------------------------------------|
B|--------------------------------------------------------------|
G|--7---9-------------------7---9----------------0--------------|
D|--7---9------2p0----------7---9------2p0----------------------|
A|--5---7----------2-0------5---7----------2-0------------------|
E|---------------------3-0---------------------3----------------|
E|-------------------------------------5-5-5-5------------------|
B|-------------------------------------5-5-5-5------------------|
G|--7---9-------------------7---9------2-2-2-2------------------|
D|--7---9------2p0----------7---9-------------------------------|
A|--5---7----------2-0------5---7-------------------------------|
E|---------------------3-0---------------------2~---------------|

Rhythm Fig. 4d
E|--------------------------------------------------------------|
B|--------------------------------------------------------------|
G|--7---9--------------------7---9------------------------------|
D|--7---9----x-x-x--x-x-x-x--7---9----x-x-x--x-x-x-x------------|
A|--5---7----x-x-x--x-x-x-x--5---7----x-x-x--x-x-x-x------------|
E|-----------x-x-x--x-x-x-x-----------x-x-x--x-x-x-x------------|
E|--------------------------------------------------------------|
B|--------------------------------------------------------------|
G|--7---9--------------------7---9------------------------------|
D|--7---9----x-x-x--x-x-x-x--7---9------------------------------|
A|--5---7----x-x-x--x-x-x-x--5---7------------------------------|
E|-----------x-x-x--x-x-x-x-----------0-4p0-5p0-6/7~------------|

Rhythm Fig. 5
E|--------------------------------------------------------------|
B|----------------------------3----3----------------------------|
G|---2--------2---------2---x-0----0----------------------------|
D|---2--------2---------2---x-0----0----------------------------|
A|---0--------0---------0---x-0----0----------------------------|
E|--------------------------------------------------------------|
   < - - - - - - - - 3x - - - - - - - - >
E|--------------------------------------------------------------|
B|--------------------------------------------------------------|
G|-------------------------7--7--7--7--7/-9---------------------|
D|--2p-0-------------------7--7--7--7--7/-9---------------------|
A|--------2--0-------------5--5--5--5--5/-7---------------------|
E|--------------3--0--------------------------------------------|
E|--------------------------------------------------------------|
B|----------------------------3----3----------------------------|
G|---2--------2---------2---x-0----0-----7--7--7--7--7/-9-------|
D|---2--------2---------2---x-0----0-----7--7--7--7--7/-9-------|
A|---0--------0---------0---x-0----0-----5--5--5--5--5/-7-------|
E|--------------------------------------------------------------|
   < - - - - - - - 3x - - - - - - - >   < - - - 3x - - - >

Rhythm Fig. 6 (let ring)
E|--10h12--10h12--10h12--10h12--10h12---------------------------|
B|--10-----10-----10-----10-----10------------------------------|
G|--------------------------------------------------------------|
D|--------------------------------------------------------------|
A|--------------------------------------------------------------|
E|--------------------------------------------------------------|
   < - - - - - - - 2x - - - - - - - >
E|--10p9--10p9--10p9--10p9--10p9---10p9--10p9--10p9-------------|
B|--10----10----10----10----10-----10----10----10---------------|
G|----------------------------------------------------2------2--|
D|----------------------------------------------------2---2--2--|
A|----------------------------------------------------0---2--0--|
E|--------------------------------------------------------0-----|
E|--------------------------------------------------------------|
B|--------------------------------------------------------------|
G|------------------------------2-------------------------------|
D|--2---------------------------2---2---------------------------|
A|--2---------------------------0---2---------------------------|
E|--0-------------------------------0-3~------------------------|

Rhythm Fig. 7
E|--------------------------------------------------------------|
B|-----------------------5~-------------------------------------|
G|----2p0---0h2----------5~---2p0---0h2-------------------------|
D|----2p0-2-0h2----------5~---2p0-2-0h2-------------------------|
A|--------2-------12\-------------2------0-4p0-5p0-6/7~---------|
E|--------------------------------------------------------------|
E|--------------------------------------------------------------|
B|-----------------------5~-------------------------------------|
G|----2p0---0h2----------5~---2p0---0h2-------------------------|
D|----2p0-2-0h2----------5~---2p0-2-0h2-------------------------|
A|--------2-------12\-------------2-----------------------------|
E|---------------------------------------0-4p0-5p0-6/7~---------|

Solo
E|---------------------------5------5----5------------------------------|
B|-------------------------5------5--------5-8p5---5--------------------|
G|----------------------7b-----7b-----7b---------7---7-6~---------------|
D|----------------------------------------------------------------------|
A|--x(/)----------------------------------------------------------------|
E|--x(/)----------------------------------------------------------------|

Start with bar at rock
bottom and bring it up
E|-----------------------------------------------------------t12-5h8p5--|
B|--10-13p10h13p10h13p10----15--15b-(/)14h15p14~------------------------|
G|----------------------------------------------------------------------|
D|----------------------------------------------------------------------|
A|----------------------------------------------------------------------|
E|----------------------------------------------------------------------|

Gradually lower bar < - - - -
E|--t12-5h8p5---------------------------------------------12(\)---------|
B|------------t12-5h8p5-t12-5h8p5---------------------------------------|
G|---------------------------------t12-6h7p6-t9--6h7p6~-----------------|
D|----------------------------------------------------------------------|
A|----------------------------------------------------------------------|
E|----------------------------------------------------------------------|
   - - - 2x - - - - - - - - - - > < - 2x - >
E|--------------15-17p15----15/19\15~-------20p17----17-----------------|
B|--20b-20b~-------------17--------------20-------20----20-17h20p17-----|
G|----------------------------------------------------------------------|
D|----------------------------------------------------------------------|
A|----------------------------------------------------------------------|
E|----------------------------------------------------------------------|
E|----------------------------------------------------------------------|
B|-----20p17----17--------------------10h13p10h13p10h13p10h13p10--------|
G|--19-------19----19-17h19p17------------------------------------------|
D|-----------------------------19~--------------------------------------|
A|----------------------------------------------------------------------|
E|----------------------------------------------------------------------|

Gradually lower bar - - - >
E|----------------------------------------------------------------------|
B|--(/)10---(/)13b-r13~-------------------------------------------------|
G|----------------------------------------------------------------------|
D|----------------------------------------------------------------------|
A|--------------------------------------10----10-12p10-12/14------------|
E|---------------------------10h12p10-12---12---------------------------|
E|----------------------------------------------------------------------|
B|----------------------------------------------------------------------|
G|--------------------------------12---------------12----12-14p-12-14---|
D|--------------12----12-14p12-14------12h14p12-14----14----------------|
A|--12h14p12-14----14---------------------------------------------------|
E|----------------------------------------------------------------------|
E|------12--------------------------------------------------------------|
B|--12------------------------------------------------------------------|
G|----------------------------------------------------------------------|
D|----------------------------------------------------------------------|
A|----------------------------------------------------------------------|
E|----------------------------------------------------------------------|

Outro solo
E|--17b---r17p15------------15b-----------------------------------------|
B|---------------17~----------------------------------------------------|
G|-----------------------------------14b--14-12-------------------------|
D|----------------------------------------------14-12---14(\)-----------|
A|----------------------------------------------------------------------|
E|----------------------------------------------------------------------|

Gradual
E|--------12-------------12-----------12-15p12----12--------------------|
B|-----------15p12----------15p12--------------15----15p12-15p12----12--|
G|--14b------------14b------------14b----------------------------14-----|
D|----------------------------------------------------------------------|
A|----------------------------------------------------------------------|
E|----------------------------------------------------------------------|
E|----------------------------------------------------------------------|
B|--------14------------------------------------------------------------|
G|--14-12-14---12--------------------------------------------12(/)------|
D|----------------14-12------------14(\)----12h14p12(\/)(\/)------------|
A|----------------------14-12~------------------------------------------|
E|----------------------------------------------------------------------|
E|----------------------------------------------------------------------|
B|-----------------------------15------15-------------------------------|
G|-------------------------14b-----14b----r14~---------------9----9-----|
D|--12h14p12(\/)(\/)---------------------------------12p9-12---12-------|
A|----------------------------------------------------------------------|
E|----------------------------------------------------------------------|
                          < - - - 2x - - - - >
E|----------------------------------------15p12----12-------------------|
B|----------------------------------------------15----15-12-15p12----12-|
G|--12b----------------12----12-16b^^-----------------------------14----|
D|---------12-14p12-14----14--------------------------------------------|
A|----------------------------------------------------------------------|
E|----------------------------------------------------------------------|
E|----------------------------------------------------------------------|
B|----------------------------------------------------------------------|
G|--14-12-15-14-12------------------------------------------------------|
D|-----------------14-13-12---------------------------------------------|
A|--------------------------14-13-12-10-12-10---------------------------|
E|--------------------------------------------12(\)---------------------|

RADAR FOR LOVE
Paul Stanley, Desmond Child
 Rby. Fig 1
 Rby. Fig 2
Passion fire runnin' through my veins
Get a little bit of love and I go insane
I may talk big, baby, I don't lie
Ooh the guys don't know but the girls know why
Ooh girls know why, whoo oh
 Rby. Fig 3
Get down and get to it
I know you can do it
Get down and get to it
I know you can do it, oh, oh, oh, oh
 Rby. Fig 4a
Radar for love, radar for love
I've got radar for love
Radar for love, ooh yeah
 Rby. Fig 2
When you feel so hot that you can't hold still
And you don't know how you're gonna get your fill
Send an S.O.S. baby, I'm your man
If I don't make good baby no one can
Oh no one can, whoo oh
 Rby. Fig 3
Get down and get to it
I know you can do it, come on
Get down and get to it
I know you can do it, oh, oh, oh, oh
 Rby. Fig 4b
Radar for love, radar for love
I've got radar for love
Radar, oh, oh
 Rby. Fig 4c
Radar for love, radar for love
Radar, Radar for love, oh
Yeah, ooh yeah, one more time
Get down, ooh get down, get down, oh, oh, oh
 Solo over Rby. Fig 5
 Rby. Fig 6
 Rby. Fig 7
Get down, get down, oooh
 Rby. Fig 4b witb Outro solo
Radar for love, radar for love
I've got radar for love
Radar, ooh baby, baby
Radar for love, radar for love
Radar for love, n-n-n-n-now, radar for love, come on
Radar, ooh, radar, ooh yeah
Radar, oh, radar, oh yeah, radar, oh yeah
Radar for love, radar, come on, radar, ha, radar, radar
S.O.S, radar, radar, get the message, sugar, radar, radar for love
 Rby. Fig 4d
  (repeat and fade)


variations - click chord images
Transpose chords:
Tuning:
Cool service:
View: Size:
A  A  A
Rating:
Layout:
  • Currently 0/5 Stars.
  • 1
  • 2
  • 3
  • 4
  • 5
 
Accuracy:
  • Currently 3.1/5 Stars.
  • 1
  • 2
  • 3
  • 4
  • 5
 
click stars to rate
Chordie recommends:
Learn to play songs at Jamplay.com with video guitar lessons
Songbook:
Login to add this song to your songbook
Support the artist
Preview/buy this song
MSN Music
Why this non-profit ad?

 
login to add comments/video/corrections