""; ?> Beth by Kiss - guitar chords, guitar tabs and lyrics - chordie

Beth

Kiss



--------------------

Transcribed by Emil Ortenmark, emil@kissasylum.com
Standard tuning
Comments: There is in actuality only guitar at the very end of the studio
version of Beth, but it's a great song so I've taken the liberty of
arranging the parts for acoustic guitar. Rhy. Fig 1 is based on the piano
in the intro, Rhy. Figs 2, 3 and 5 are based on the acoustic demo for
Beth, and Rhy. Fig 4 is kind of a combination of the strings and the under-
lying harmonic movement in the instumental interlude. Since people have
asked that I include chord names when doing this sort of thing they can
be found above each staff. Play fingerstyle and let ring throughout.
Key:
/ = slide up
\ = slide down
b = bend (whole step)
b^ = bend (1/2 step)
b^^ = bend (1 1/2 steps)
pb = pre-bend
r = release-bend
t = tap with righthand finger
h = hammer-on
p = pull-off
~ = Vibrato
* = Natural Harmonic

** = Artificial Harmonic
x = Dead notes (no pitch)
P.M. = Palm mute (- -> underneath indicates which notes)
(\) = Dive w\bar
(/) = Release w\bar
Tp = Tap w\plectrum
Rhythm Fig. 1
 CFG
E|--3----3--3----1-0-----------------------------------1------------|
B|--1----1--1----1----3--1------1----1--3--0---1---3----------------|
G|------------------------------2----2-------0---0---0---0----------|
D|------------------------------------------------------------------|
A|--3--3-------3----------------------------------------------------|
E|--------------------------0h1----1-------3------------------------|

 CFG
E|--3----3--3----1-0------------------------------------------------|
B|--1----1--1----1----3--1------1----1--3--0------------------------|
G|------------------------------2----2-----0------------------------|
D|------------------------------------------------------------------|
A|--3--3-------3----------------------------------------------------|
E|--------------------------0h1----1-------3------------------------|

Rhythm Fig. 2
 CDm7/CCAmG
E|----------0---------------1---------------0-----------------------|
B|------1-----1---1-----1-----1---1-----1-----1---1-----1-------0---|
G|----0---0-----0-----2---2-----2-----0---0-----0-----2---2---0---0-|
D|------------------------------------------------------------------|
A|--3---------------3---------------3---------------0---------------|
E|----------------------------------------------------------3-------|

 FGCEsus4E
E|----------1---------------3---------------0-----------------------|
B|------1-----1---1-----0-----3---3-----1-----1---1-----0---0---0---|
G|----2---2-----2-----0---0-----0-----0---0-----0-----2---2---1---1-|
D|------------------------------------------------------------------|
A|----------------------------------3-------------------------------|
E|--1---------------3-------------------------------0---------------|

 AmGFEm
E|----------0---------------3---------------1---------------0-------|
B|------1-----1---1-----0-----3---3-----1-----1---1-----0-----0---0-|
G|----2---2-----2-----0---0-----0-----2---2-----2-----0---0-----0---|
D|------------------------------------------------------------------|
A|--0---------------------------------------------------------------|
E|------------------3---------------1---------------0---------------|

Rhythm Fig. 3
 D7(sus4FGAmG
E|--------2-3p2---------------------------0-------------------------|
B|------1-------1-------1-------3--------------1------1--0----------|
G|----2-----------2---2---2---0---0-----2----2--------2--0----------|
D|--0---------------------------------2-----------------------------|
A|----------------------------------0-----------------0-------------|
E|------------------1-------3----------------------------3----------|

 FF/GC
E|------------------------------------------------------------------|
B|--1---1--0-1------------1-----------------------------------------|
G|--2---2--0-0----------0-------------------------------------------|
D|------------------0h2---------------------------------------------|
A|-----------3------------------------------------------------------|
E|--1---3-----------------------------------------------------------|

Rhythm Fig. 4
 CFG
E|--3----3--3----1-0-----------------------------------1------------|
B|--1----1--1----1----3--1------1----1--3--0---1---3----------------|
G|------------------------------2----2-------0---0---0---0----------|
D|------------------------------------------------------------------|
A|--3--3-------3----------------------------------------------------|
E|--------------------------0h1----1-------3------------------------|

 CFEsus4E
E|--3----3--3----1-0------------------------------------------------|
B|--1----1--1----1----3--1------1----1--3--0------------------------|
G|------------------------------2----2-----2----1-------------------|
D|------------------------------------------------------------------|
A|--3--3-------3----------------------------------------------------|
E|--------------------------0h1----1-------0------------------------|

N.C (Am G F ) Esus4 E Esus4
E|------------------------------------------------------------------|
B|----5-3h5---5---5---3-1h3-0h3---3---1-0h1---1---1---0---0---0---0-|
G|----------5---4---------------2-----------2---0-------2---1---2---|
D|------------------------------------------------------------------|
A|--0---------------------------------------------------------------|
E|------------------3---------------1---------------0---------------|

Rhythm Fig. 5
 CDm7/CCAmG
E|----------0---------------1---------------0-----------------------|
B|------1-----1---1-----1-----1---1-----1-----1---1-----1-------0---|
G|----0---0-----0-----2---2-----2-----0---0-----0-----2---2---0---0-|
D|------------------------------------------------------------------|
A|--3---------------3---------------3---------------0---------------|
E|----------------------------------------------------------3-------|

 FG
E|----------1---------------3---------------------------------------|
B|------1-----1---1-------3-----------------------------------------|
G|----2---2-----2-------0-------------------------------------------|
D|--------------------0---------------------------------------------|
A|------------------------------------------------------------------|
E|--1---------------3-----------------------------------------------|

Rhythm Fig. 6
 CFG
E|--3----3--3----1-0-----------------------------------1------------|
B|--1----1--1----1----3--1------1----1--3--0---1---3----------------|
G|------------------------------2----2-------0---0---0---0----------|
D|------------------------------------------------------------------|
A|--3--3-------3----------------------------------------------------|
E|--------------------------0h1----1-------3------------------------|

 CFG
E|--3----3--3----1-0------------------------------------------------|
B|--1----1--1----1----3--1------1----1--3--0------------------------|
G|------------------------------2----2-----0------------------------|
D|--------------------------------------------------0---------------|
A|--3--3-------3--------------------------------0h2-----------------|
E|--------------------------0h1----1-------3------------------------|

 C
E|----------0--3/--12-----------------------------------------------|
B|--------1--------13-----------------------------------------------|
G|------0-----------------------------------------------------------|
D|----2-------------------------------------------------------------|
A|--3---------------------------------------------------------------|
E|------------------------------------------------------------------|

BETH
Peter Criss, Stan Penridge, Bob Ezrin
 Rby. Fig 1
 Rby. Fig 2
Beth, I hear you callin'
But I can't come home right now
Me and the boys are playin'
And we just can't find the sound
Just a few more hours
And I'll be right home to you
 Rby. Fig 3
I think I hear them callin'
Oh, Beth what can I do
Beth what can I do
 Rby. Fig 2
You say you feel so empty
That our house just ain't a home
And I'm always somewhere else
And you're always there alone
Just a few more hours
And I'll be right home to you
 Rby. Fig 3
I think I hear them callin'
Oh, Beth what can I do
Beth what can I do
 Rby. Fig 4
 Rby. Fig 3
 Rby. Fig 5
Beth, I know you're lonely
And I hope you'll be alright
'Cause me and the boys will be playin'
 Rby. Fig 6
All night


Am C Dm7/C E Em Esus4 F F/G G
variations - click chord images
Transpose chords:
Tuning:
Cool service:
View: Size:
A  A  A
Rating:
Layout:
  • Currently 2.7/5 Stars.
  • 1
  • 2
  • 3
  • 4
  • 5
 
Accuracy:
  • Currently 3.1/5 Stars.
  • 1
  • 2
  • 3
  • 4
  • 5
 
click stars to rate
Chordie recommends:
Learn how to play guitar at JamPlay.com
Songbook:
Login to add this song to your songbook
Support the artist
Preview/buy this song
MSN Music
Why this non-profit ad?

 
login to add comments/video/corrections