Guitar Tabs, Chords and Lyrics


King of the Nighttime World   Kiss


--------------------




Transcribed by Emil Ortenmark, emil@kissasylum.com


Tuned down 1/2-step


Comments: The rhythm work here is very sparse and, as is the norm on this


album, mixed very low. There are plenty of little fills that turn up here


and there and I've chosen to list them as Riffs for the most part. The


solo rocks. It's slightly different than Ace's early stuff but the thematic


character of it is classic Ace, and the harmony part that closes the solo


is just too cool.


Key:


/    = slide up


\    = slide down


b    = bend (whole step)


b^   = bend (1/2 step)


b^^  = bend (1 1/2 steps)


pb   = pre-bend


r    = release-bend


t    = tap with righthand finger


h    = hammer-on


p    = pull-off


~    = Vibrato


*    = Natural Harmonic





**   = Artificial Harmonic


x    = Dead notes (no pitch)


P.M. = Palm mute (- -> underneath indicates which notes)


(\)  = Dive w\bar


(/)  = Release w\bar


Tp   = Tap w\plectrum


Rhythm Fig. 1


                                                                                                                                                                  


Eb|---------------------------------------------------|
Bb|---------------------------------------------------|
Gb|--5--0---------------------------------------------|
Db|--5--0--7------------------------------------------|
Ab|--3-----5------------------------------------------|
Eb|---------------------------------------------------|




Rhythm Fig. 2


                                                                                                                                                                  


Eb|---------------------------------------------------|
Bb|----------------------------------12\--------------|
Gb|--5--0------------------12--------12\--------------|
Db|--5--0--7---------------12----12-------------------|
Ab|--3-----5---------------10-------------------------|
Eb|---------------------------------------------------|




Rhythm Fig. 3


                                                                                                                                                                  


Eb|---------------------------------------------------|
Bb|-------7-------8---7-------------------------------|
Gb|-------7-------9---7----12-------------------------|
Db|-------7----7--7---7----12-------------------------|
Ab|------------------------10-------------------------|
Eb|---------------------------------------------------|




Rhythm Fig. 4


                                                                                                                                                                  


Eb|---------------------------------------------------|
Bb|--7-------8--8--8--7----12--------13--13--13--12---|
Gb|--7-------9--9--9--7----12--------14--14--14--12---|
Db|--7----7--7--7--7--7----12----12--12--12--12--12---|
Ab|---------------------------------------------------|
Eb|---------------------------------------------------|
Eb|---------------------------------------------------|
Bb|--5-------6--6--6--5------------6--5----6-5--------|
Gb|--5-------7--7--7--5----5----5-----5----5-5--------|
Db|--5----5--5--5--5--5----7----------5----7-5--------|
Ab|---------------------------------------------------|
Eb|---------------------------------------------------|




                           Let ring ->


Rhythm Fig. 5


                                                                                                                                                                  


Eb|---------------------------------------------------|
Bb|---------------------------------------------------|
Gb|--7--------------12--------------------------------|
Db|--7--------------12--------------------------------|
Ab|--5--------------10----------------12--11----------|
Eb|-----------------------------------10--9-----------|




                           [End]    [1]                                                                                                                                    


Eb|-----------------------|---------------------------|
Bb|-----------------------|---------------------------|
Gb|------------------10---|-------------5--0----------|
Db|------------------10---|-------------5--0----------|
Ab|--10--------------8----|-------------3-------------|
Eb|--8--------------------|---------------------------|




Rhythm Fig. 6


                                                                                                                                                                 


Eb|---------------------------------------------------|
Bb|---------------------------------------------------|
Gb|--7--------------12--------------------------------|
Db|--7--------------12--------------------------------|
Ab|--5--------------10----------------12--11----------|
Eb|-----------------------------------10--9-----------|




                          [End]    [1]                                                                                                                                    


Eb|----------------------|----------------------------|
Bb|----------------------|----------------------------|
Gb|------------------10--|----------------------------|
Db|------------------10--|----------------------------|
Ab|--10--------------8---|--------------3-------------|
Eb|--8-------------------|-----------------3----------|




Rhythm Fig. 7


                                                                                                                                                                 


Eb|---------------------------------------------------|
Bb|---------------------------------------------------|
Gb|--7--------7--------5--------10--------------------|
Db|--7--------7--------5--------10--------------------|
Ab|--5--------5--------3--------8---------------------|
Eb|---------------------------------------------------|
    < - - - - - - - 3x - - - - - - - >
Eb|---------------------------------------------------|
Bb|---------------------------------------------------|
Gb|--7--------7--------5--------10----5--0------------|
Db|--7--------7--------5--------10----5--0------------|
Ab|--5--------5--------3--------8-----3---------------|
Eb|---------------------------------------------------|




Riff 1


                                                                                                                                                                 


Eb|---------------------------------------------------|
Bb|---------------------------------------------------|
Gb|--5b~----------------------------------------------|
Db|---------------------------------------------------|
Ab|---------------------------------------------------|
Eb|---------------------------------------------------|




       Very wide vibrato and feedback


Riff 2


                                                                                                                                                                 


Eb|---------------------------------------------------|
Bb|---------------------------------------------------|
Gb|---------------------------------------------------|
Db|---------------------------------------------------|
Ab|--3------------------------------------------------|
Eb|-----3---------------------------------------------|




Riff 3


                                                                                                                                                                 


Eb|---------------------------------------------------|
Bb|--/15--------------------------/13-----------------|
Gb|---------------------------------------------------|
Db|----------------\5---------------------------------|
Ab|---------------------------------------------------|
Eb|---------------------------------------------------|




Riff 4


                                                                                                                                                                 


Eb|---------------------------------------------------|
Bb|----------6--6--6--5----6--5-----------------------|
Gb|----------5--5--5--5----5--5-----------------------|
Db|----------7--7--7--5----7--5-----------------------|
Ab|---------------------------------------------------|
Eb|---------------------------------------------------|




Riff 5


                                                                                                                                                                 


Eb|--15---15---15-15p14-------------------------------|
Bb|---------------------15----------------------------|
Gb|------------------------14~-----14b-r14-12~--------|
Db|---------------------------------------------------|
Ab|---------------------------------------------------|
Eb|---------------------------------------------------|




                                  [End]    [1]                                                                                                                            


Eb|------------------15b-r15-13~-|-19b-r19p17-19-20b~-|
Bb|--15b-r15-13~-----------------|--------------------|
Gb|------------------------------|--------------------|
Db|------------------------------|--------------------|
Ab|------------------------------|--------------------|
Eb|------------------------------|--------------------|




Riff 6


                                                                                                                                                                 


Eb|--19---19---19-19p17-------------------------------|
Bb|---------------------19----------------------------|
Gb|------------------------19~-----17b-r17-16~--------|
Db|---------------------------------------------------|
Ab|---------------------------------------------------|
Eb|---------------------------------------------------|
Eb|-------------------19b^-r19-17~--------------------|
Bb|--18b-r18-17~--------------------------------------|
Gb|---------------------------------------------------|
Db|---------------------------------------------------|
Ab|---------------------------------------------------|
Eb|---------------------------------------------------|




Riff 7


                                                                                                                                                                 


Eb|------------------------------------13-------------|
Bb|------15--------15--------13--------16b------------|
Gb|------17b-------17b-------15b----------------------|
Db|---------------------------------------------------|
Ab|---------------------------------------------------|
Eb|---------------------------------------------------|




  |                                                   |


  |                                                   |


                                                                                                                                                                 


Eb|---------------------------------------------------|
Bb|------10--------8---------8---------10-------------|
Gb|------12b-------10b-------10b-------12b------------|
Db|---------------------------------------------------|
Ab|---------------------------------------------------|
Eb|---------------------------------------------------|




Solo


                                                                                                                                                                 


Eb|-------10-10--10-----------------------------------|
Bb|-------10-10--10---10------12----------------------|
Gb|-------------------10h11---12--10~-----------------|
Db|--0---------------------(0)-----------12--10-------|
Ab|---------------------------------------------------|
Eb|---------------------------------------------------|
Eb|-------10-10--10-----------------------------------|
Bb|-------10-10--10-------13---13---15---15-----------|
Gb|-----------------------14---14---16---16-----------|
Db|--0------------------0----0----0----0--------------|
Ab|---------------------------------------------------|
Eb|---------------------------------------------------|
Eb|-------10-10--10-----------------------------------|
Bb|-------10-10--10---10------12----------------------|
Gb|-------------------10h11---12--10~-----------------|
Db|--0---------------------(0)-----------12--10-------|
Ab|---------------------------------------------------|
Eb|---------------------------------------------------|
Eb|---------10----------------------------------------|
Bb|------10----13-10----------------------------------|
Gb|--12b-------------13-12-10----12----10-------12----|
Db|---------------------------12----12----(12)--------|
Ab|---------------------------------------------------|
Eb|---------------------------------------------------|
Eb|---------------------------------------------------|
Bb|---------------------------------------------------|
Gb|--12b-r12p10---------------------------------------|
Db|-------------12-10-12~-----------------------------|
Ab|---------------------------------------------------|
Eb|---------------------------------------------------|


Important: The song above is NOT stored on the Chordie server. The original song is hosted at www.kissasylum.com. Chordie works as a search engine and provides on-the-fly formatting. Chordie does not index songs against artists'/composers' will. To remove this song please click here.

This song is displayed as text-only. Transposing and tuning is only available for chordpro-songs.

Login - add to songbook

Rating click stars to rate

Layout
Accuracy

SHARE PAGE  




You need to log in to post comments