Plaster Caster

Kiss



--------------------

Transcribed by Emil Ortenmark, emil@kissasylum.com
Tuned down 1/2-step
Comments: Much like Love gun this song is tuned slightly below Eb. This is
by no means unusual on records from this time, especially not KISS records.
I like this solo, the double-stop bends are cool and the very simple but
effective outlining of the chords work well.
Key:
/ = slide up
\ = slide down
b = bend (whole step)
b^ = bend (1/2 step)
b^^ = bend (1 1/2 steps)
pb = pre-bend
r = release-bend
t = tap with righthand finger
h = hammer-on
p = pull-off
~ = Vibrato
* = Natural Harmonic

** = Artificial Harmonic
x = Dead notes (no pitch)
P.M. = Palm mute (- -> underneath indicates which notes)
(\) = Dive w\bar
(/) = Release w\bar
Tp = Tap w\plectrum
Rhythm Fig. 1
Eb|-----------------------------------------------------|
Bb|-----------------------8p-7-----8p-7-----------------|
Gb|----------------------(7)----7--------7--------------|
Db|-----------------------------------------------------|
Ab|--0--------------------------------------------------|
Eb|-----------------------------------------------------|

Let ring - - - - >
Rhythm Fig. 2a
Eb|-----------------------------------------------------|
Bb|-----------------------------------------------------|
Gb|--10------------------12-----------------------------|
Db|--10------------------12-----------------------------|
Ab|--8-------------------10-----------------------------|
Eb|-----------------------------------------------------|
Eb|-----------------------------------------------------|
Bb|-----------------8----8----7--7----------------------|
Gb|--7--------------7----7----7--7----------------------|
Db|--7--------------9----9----7--7---(x)----------------|
Ab|--5-------------------------------(x)----------------|
Eb|-----------------------------------------------------|

Rhythm Fig. 2b
Eb|-----------------------------------------------------|
Bb|-----------------------------------------------------|
Gb|-----------------------------------------------------|
Db|--10-------12p-10--10------12--------14p-12--12------|
Ab|--8-----8--8-------8-------10----10--10------10------|
Eb|-----------------------------------------------------|
Eb|-----------------------------------------------------|
Bb|-----------------8----8----7--7----------------------|
Gb|--7--------------7----7----7--7----------------------|
Db|--7--------------9----9----7--7---(x)----------------|
Ab|--5-------------------------------(x)----------------|
Eb|-----------------------------------------------------|

Rhythm Fig. 3 P.M. (on open 5th)
Eb|-------------3---------------------2-----------------|
Bb|-------------3---------------------3-----------------|
Gb|-------------0---------------------2-----------------|
Db|------------------------------0----------------------|
Ab|------------------------2--3-------------------------|
Eb|--0--2--3--------------------------------------------|
   < - - - - - - - - - 2x - - - - - - - - - - >
Eb|-----------------------------------------------------|
Bb|-----------------------------------------------------|
Gb|-----10----------------12----------------------------|
Db|-----10----------------12----------------------------|
Ab|-----8-----------------10----------------------------|
Eb|--0--------------------------------------------------|

P.M.
Eb|-----------------------------------------------------|
Bb|-----------------------------------------------------|
Gb|-------------------------2----------------5--5-------|
Db|--2-------4-----2-----4--2----------------5--5-------|
Ab|--0----0-----0-----0-----0----------------3--3-------|
Eb|-----------------------------------------------------|

Rhythm Fig. 4a
Eb|-----------------------------------------------------|
Bb|---------------------3-------------------------------|
Gb|--7------------------0-------------------------5--5--|
Db|--7------------------0-------------------------5--5--|
Ab|--5--------------------------------------------3--3--|
Eb|---------------------3-------------------------------|
Eb|-----------------------------------------------------|
Bb|---------------------3-------------------------------|
Gb|--7------------------0-------------------------------|
Db|--7------------------0-------------------------------|
Ab|--5--------------------------------------------------|
Eb|---------------------3-------------------------------|
Eb|-----------------------------------------------------|
Bb|-----------------------------------------------------|
Gb|--10-------------------------------------------------|
Db|--10------------------10-----------------------------|
Ab|--8-------------------10-----------------------------|
Eb|----------------------8------------------------------|
Eb|-----------------------------------------------------|
Bb|--3--------------------------------------------------|
Gb|--0--------------5-----5-----------------------------|
Db|--0--------------5-----5-----5--5--------------------|
Ab|-----------------3p-0--3p-0--5--5--------------------|
Eb|--3--------------------------3--3--------------------|

Rhythm Fig. 4b
Eb|-----------------------------------------------------|
Bb|---------------------3-------------------------------|
Gb|--7------------------0-------------------------5--5--|
Db|--7------------------0-------------------------5--5--|
Ab|--5--------------------------------------------3--3--|
Eb|---------------------3-------------------------------|
Eb|-----------------------------------------------------|
Bb|---------------------3-------------------------------|
Gb|--7------------------0-------------------------------|
Db|--7------------------0-------------------------------|
Ab|--5--------------------------------------------------|
Eb|---------------------3-------------------------------|
Eb|-----------------------------------------------------|
Bb|-----------------------------------------------------|
Gb|--10-------------------------------------------------|
Db|--10------------------10-----------------------------|
Ab|--8-------------------10-----------------------------|
Eb|----------------------8------------------------------|
Eb|-----------------------------------------------------|
Bb|--3--------------13----13----12--12------------------|
Gb|--0--------------12----12----12--12------------------|
Db|--0--------------14----14----12--12------------------|
Ab|-----------------------------------------------------|
Eb|--3--------------------------------------------------|

Rhythm Fig. 5a
Eb|-----------------------------------------------------|
Bb|-----------------------------------------------------|
Gb|-----------------------------------------------------|
Db|--7-------9--7--9--7----12--------14p-12--12\-5--5---|
Ab|--5----5--5--5--5--5----10----10--10------10\-3--3---|
Eb|-----------------------------------------------------|
Eb|-----------------------------------------------------|
Bb|-----------------------------------------------------|
Gb|-----------------------------------------------------|
Db|--7-------9--7--9--7----12--------14p-12--12---------|
Ab|--5----5--5--5--5--5----10----10--10------10---------|
Eb|-----------------------------------------------------|
Eb|-----------------------------------------------------|
Bb|-----------------------------------------------------|
Gb|--10-------------------------------------------------|
Db|--10------------------10-----------------------------|
Ab|--8-------------------10-----------------------------|
Eb|----------------------8------------------------------|
Eb|-----------------------------------------------------|
Bb|--3---------------------------3--3-------------------|
Gb|--0---------------------------0--0-------------------|
Db|--0---------------------------0--0-------------------|
Ab|-----------------3p--0--3p-0-------------------------|
Eb|--3---------------------------3--3-------------------|

Rhythm Fig. 5b
Eb|-----------------------------------------------------|
Bb|-----------------------------------------------------|
Gb|-----------------------------------------------------|
Db|--7-------9--7--9--7-----12--------14p-12--12\-5--5--|
Ab|--5----5--5--5--5--5-----10----10--10------10\-3--3--|
Eb|-----------------------------------------------------|
Eb|-----------------------------------------------------|
Bb|-----------------------------------------------------|
Gb|-----------------------------------------------------|
Db|--7-------9--7--9--7-----12--------14p-12--12--------|
Ab|--5----5--5--5--5--5-----10----10--10------10--------|
Eb|-----------------------------------------------------|
Eb|-----------------------------------------------------|
Bb|-----------------------------------------------------|
Gb|--10-------------------------------------------------|
Db|--10------------------10-----------------------------|
Ab|--8-------------------10-----------------------------|
Eb|----------------------8------------------------------|
Eb|-----------------------------------------------------|
Bb|--3--------------13----13----12--12------------------|
Gb|--0--------------12----12----12--12------------------|
Db|--0--------------14----14----12--12------------------|
Ab|-----------------------------------------------------|
Eb|--3--------------------------------------------------|

Rhythm Fig. 6
Eb|-----------------------------------------------------|
Bb|-----------------------------------------------------|
Gb|-----------------------------------------------------|
Db|--3--------3--2--0-----------------------------------|
Ab|--------------------3------------3--2--0-------------|
Eb|------------------------------------------3----------|
Eb|-----------------------------------------------------|
Bb|-----------------------------------------------------|
Gb|-----------------------------------------------------|
Db|-----------------0--5~-------------------------------|
Ab|-----------2--3--------------------------------------|
Eb|-----------------------------------------------------|

Riff 1
Eb|-----------------------------------------------------|
Bb|--8------8-------8-----------------------------------|
Gb|--10b----10b-----10b~--------------------------------|
Db|-----------------------------------------------------|
Ab|-----------------------------------------------------|
Eb|-----------------------------------------------------|

Riff 2
Eb|-----------------------------------------------------|
Bb|--8------8-------10----------------------------------|
Gb|--10b----10b-----12b~--------------------------------|
Db|-----------------------------------------------------|
Ab|-----------------------------------------------------|
Eb|-----------------------------------------------------|

Solo
Eb|-----------------------------------------------------|
Bb|--8--------------------------------------------------|
Gb|--7b--r7--7b--r7--7b--r7-----7b---7-5h7p5---7-5------|
Db|------------------------------------------7-----7----|
Ab|-----------------------------------------------------|
Eb|-----------------------------------------------------|

Pick only once - - - - >
Eb|-----------------------------------------------------|
Bb|--8-----------------------5h8p5---5-8/10--10--8b-----|
Gb|--7b--r7--7b--r7--7b--r7--------7--------------------|
Db|-----------------------------------------------------|
Ab|-----------------------------------------------------|
Eb|-----------------------------------------------------|
Eb|------------13------------------------15-------------|
Bb|---------13----15/18~--------------15----17/20~------|
Gb|--12/-14--------------------14/-16-------------------|
Db|-----------------------------------------------------|
Ab|-----------------------------------------------------|
Eb|-----------------------------------------------------|
Eb|-----------10----13b---13---10h13p10----10-----------|
Bb|--------10----10---------------------13----13b---r13-|
Gb|--9/-11----------------------------------------------|
Db|-----------------------------------------------------|
Ab|-----------------------------------------------------|
Eb|-----------------------------------------------------|
Eb|-----------------------------------------------------|
Bb|--12~------------------------------------------------|
Gb|-----------------------------------------------------|
Db|-----------------------------------------------------|
Ab|-----------------------------------------------------|
Eb|-----------------------------------------------------|

Outro solo
Eb|-----------------------------------10----------------|
Bb|--10----------------------------10----13-10h13p10----|
Gb|---9b--r9--9b--r9-----------12b-------------------12-|
Db|-----------------------------------------------------|
Ab|-----------------------------------------------------|
Eb|-----------------------------------------------------|

Pick only once ->
Eb|-----------------------------------------------------|
Bb|---------------------------13------------------------|
Gb|--10~----------------------12b--r12--b12--r12--------|
Db|--10~------------------------------------------------|
Ab|-----------------------------------------------------|
Eb|-----------------------------------------------------|

Pick only once ->
Eb|-----------------------------------------------------|
Bb|--12---12p10------10---------------------------------|
Gb|--12---12p10------10---------------------------------|
Db|--------------12------12--10-------------------------|
Ab|-----------------------------------------------------|
Eb|-----------------------------------------------------|
Eb|---------10------10------10--------------------------|
Bb|------10-10------10------10--13b-------13-10h13p10---|
Gb|--12b--------12b-----12b-----------------------------|
Db|-----------------------------------------------------|
Ab|-----------------------------------------------------|
Eb|-----------------------------------------------------|
Eb|----------------10--------------10-----------10-13---|
Bb|-----10------10----13p10----10-----13p10--13---------|
Gb|--12-----12b----------------12b----------------------|
Db|-----------------------------------------------------|
Ab|-----------------------------------------------------|
Eb|-----------------------------------------------------|
            <- - - 14x - - -> < - - 11x - >
Eb|--10-------------------------------------------------|
Bb|-----13p10-----------10------------------------------|
Gb|-----------12p10-12b---12p10----12p10----10----------|
Db|-----------------------------12-------12----12-11-10-|
Ab|-----------------------------------------------------|
Eb|-----------------------------------------------------|
Eb|-----------------------------------------------------|
Bb|-----------------------------------------------------|
Gb|------------12--12b--12--10-10h12p10----10-----------|
Db|-------------------------------------12--------------|
Ab|--12-11-10-------------------------------------------|
Eb|-----------------------------------------------------|

Fade out
PLASTER CASTER
Gene Simmons
 Intro: Bass only
 Rby. Fig 1
  (4x)
 Rby. Fig 1
  (2x)
Baby's getting anxious, the hour's getting late
 Rby. Fig 2a w/ Rby. Fig 2b
The night is almost over, she can't wait
 Rby. Fig 1
  (2x)
Oh, things are complicating, my love is in her hands
 Rby. Fig 2a w/ Rby. Fig 2b
And there's no more waiting, she understands
 Rby. Fig 3
The plaster's gettin' harder and my love is perfection
A token of my love for her collection, her collection
 Rby. Fig 4a w/ Rby. Fig 5a
Plaster caster, grab a hold of me faster
And if you wanna see my love, just ask her
 Rby. Fig 1
  (2x)
And my love is the plaster
And yeah, she's the collector
 Rby. Fig 2a w/ Rby. Fig 2b
She wants me all the time to inject her
 Rby. Fig 3 w/ Riff 1
The plaster's gettin' harder and my love is perfection
A token of my love for her collection
 Rby. Fig 4a w/ Rby. Fig 5a
Plaster caster, plaster caster
Grab a hold of me faster, plaster, faster
And if you wanna see my love, just ask her, ask her
Go on, ask her
 Solo over Rby. Fig 1 (2x
 Rby. Fig 2a w/ Rby. Fig 2b
 Rby. Fig 3 w/ Riff 2
The plaster's gettin' harder and my love is perfection
A token of my love for her collection, her collection
 Rby. Fig 4b w/ Rby. Fig 5b and Outro solo
Plaster caster, plaster caster
Grab a hold of me faster, plaster, faster
If you wanna see my love, just ask her, ask her
 Rby. Fig 4b w/ Rby. Fig 5b
  (repeat and fade)
Plaster caster, plaster caster
She wants my love to last her, last her, last her
And she calls me by the name of master, master
Plaster caster, plaster caster
Grab a hold of me faster, plaster, faster
If you wanna see my love, just ask her, ask her
Plaster caster, plaster caster
Grab a hold of me faster, plaster, faster
And if you wanna see my love, just ask her, ask her
Plaster caster, plaster caster


variations - click chord images
Transpose chords:
Tuning:
Cool service:
View: Size:
A  A  A
Rating:
Layout:
  • Currently 0/5 Stars.
  • 1
  • 2
  • 3
  • 4
  • 5
 
Accuracy:
  • Currently 3.4/5 Stars.
  • 1
  • 2
  • 3
  • 4
  • 5
 
click stars to rate
Chordie recommends:
Learn to play guitar with video-based, online guitar lessons at JamPlay.com
Songbook:
Login to add this song to your songbook
Support the artist
Preview/buy this song
MSN Music
Why this non-profit ad?

 
login to add comments/video/corrections