Guitar Tabs, Chords and Lyrics


Raise Your Glasses   Kiss


--------------------




                                                                                                                                                                  


Eb|---------------------------------------------------------|
Bb|--5---5--------------------------------2--2--2--2/4------|
Gb|--4---4-----4---2---2------------------2--2--2--2/4------|
Db|--2---2-----4---2---2------------------2--2--2--2/4------|
Ab|------------2---0---0-----0------------------------------|
Eb|-----------------------------4~---2~---------------------|




Riff 1b (intro)


                                                                                                                                                                  


Eb|------0--------------------------------------------------|
Bb|------0--------------------------------------------------|
Gb|------------4---2----------------------9--9--9--9/11-----|
Db|------------4---2----------------------7--7--7--7/9------|
Ab|------------2---0---------0------------------------------|
Eb|--0--------------------------4~---2~---------------------|




Riff 2a (P.M. on 4th throughout)


                                                                                                                                                                  


Eb|---------------------------------------------------------|
Bb|--7-------------7--7---------------7--------------7------|
Gb|--7-------------7--7---------------7--------------7------|
Db|--7-7-7-7-7-7-7-7--8-8-8-8-8-8-8-8-9--9-9-9-9-9-9-9------|
Ab|---------------------------------------------------------|
Eb|---------------------------------------------------------|
Eb|---------------------------------------------------------|
Bb|-7-----------------------7-------------7-7---------------|
Gb|-7-----------------------7-------------7-7---------------|
Db|-10-10-10-10-10-10-10-10-9-9-9-9-9-9-9-9-8-8-8-8-8-8-8-8-|
Ab|---------------------------------------------------------|
Eb|---------------------------------------------------------|




Riff 2b


                                                                                                                                                                  


Eb|---------------------------------------------------------|
Bb|----------7-------------------7b^7r~--------------7------|
Gb|------7-------7----------7--------------------7-------7--|
Db|--7------------------8--------------------9--------------|
Ab|---------------------------------------------------------|
Eb|---------------------------------------------------------|
Eb|---------------------------------------------------------|
Bb|------------7b^7r~------------10----------------8b-8r----|
Gb|-------7------------------7--------7--------7------------|
Db|--10------------------9-----------------8----------------|
Ab|---------------------------------------------------------|
Eb|---------------------------------------------------------|




Riff 3


                                                                                                                                                                  


Eb|---------------------------------------------------------|
Bb|--3------------------------------------------------------|
Gb|--2------------------------------------------------------|
Db|--0------------------------------------------------------|
Ab|--0------------------------------------------------------|
Eb|---------------------------------------------------------|  




Riff 4 (pre-chorus)


                                                                                                                                                                 


Eb|---------------------------------------------------------|
Bb|--------3-----3------------------------------------------|
Gb|--2-----2-----0------5-----3------5------7-7-7-7-7-7-7-7-|
Db|--2-----0-----0------5-----3------5------7-7-7-7-7-7-7-7-|
Ab|--0-----------x------3-----1------3------5-5-5-5-5-5-5-5-|
Eb|--------------3------------------------------------------|




Riff 5a (chorus)


                                                                                                                                                                 


Eb|---------------------------------------------------------|
Bb|--5------------------------------------------------------|
Gb|--4-----4--------6-----4--------2--------------------4---|
Db|--2-----4--------6-----4--------2--------------4-----4---|
Ab|--------2--------4-----2--------0--------------4-----2---|
Eb|--------------------------------------4~-------2---------|




Riff 5b (chorus, let ring)


                                                                                                                                                                 


Eb|-----0-------------0----------0-------------0------------|
Bb|--------0-------0-----0----------0-------0-----0---------|
Gb|---------------------------------------------------------|
Db|---------------------------------------------------------|
Ab|-----------2---------------4--------2--------------------|
Eb|--0------------------------------------------------------|
Eb|-----0-------------0----------0-------------0------------|
Bb|--------0-------0-----0----------0-------0-----0---------|
Gb|---------------------------------------------------------|
Db|---------------------------------------------------------|
Ab|--0---------------------------------2--------------------|
Eb|-----------4~--------------2-----------------------------|




Riff 6a (bridge, staccato throughout)


                                                                                                                                                                 


Eb|-8-8-8-8-8-8-8-8-7-7-7-7-7-7-7-7-10-10-10-10-10-10-10-10-|
Bb|-8-8-8-8-8-8-8-8-8-8-8-8-8-8-8-8-10-10-10-10-10-10-10-10-|
Gb|-9-9-9-9-9-9-9-9-7-7-7-7-7-7-7-7-11-11-11-11-11-11-11-11-|
Db|---------------------------------------------------------|
Ab|---------------------------------------------------------|
Eb|---------------------------------------------------------|
Eb|-9--9--9--9--9--9--9--9--8-8-8-8-8-8-8-8-7-7-7-7-7-7-7-7-|
Bb|-10-10-10-10-10-10-10-10-8-8-8-8-8-8-8-8-8-8-8-8-8-8-8-8-|
Gb|-9--9--9--9--9--9--9--9--9-9-9-9-9-9-9-9-7-7-7-7-7-7-7-7-|
Db|---------------------------------------------------------|
Ab|---------------------------------------------------------|
Eb|---------------------------------------------------------|
Eb|-11-11-11-11-11-11-11-11-11-11-11-11-11-11-11-11---------|
Bb|-12-12-12-12-12-12-12-12-12-12-12-12-12-12-12-12---------|
Gb|-11-11-11-11-11-11-11-11-11-11-11-11-11-11-11-11---------|
Db|---------------------------------------------------------|
Ab|---------------------------------------------------------|
Eb|---------------------------------------------------------|




Riff 6b (bridge)


                                                                                                                                                                 


Eb|---------------------------------------------------------|
Bb|---------------------------------------------------------|
Gb|-5----5--------7----7------5----5------------------------|
Db|-5----5-5----5-7----7-7----5----5-5----5-4-4-4-4-4-4-4-4-|
Ab|-3----3-5----5-5----5-7----3----3-5----5-2-2-2-2-2-2-2-2-|
Eb|--------3----3--------5-----------3----3-----------------|
Eb|---------------------------------------------------------|
Bb|---------------------------------------------------------|
Gb|---------------------------------------------------------|
Db|--4--4--4--4--4--4--4--4---------------------------------|
Ab|--2--2--2--2--2--2--2--2---------------------------------|
Eb|---------------------------------------------------------|




Riff 7 (P.M. throughout)


                                                                                                                                                                 


Eb|---------------------------------------------------------|
Bb|---------------------------------------------------------|
Gb|---------------------------------------------------------|
Db|---------------------------------------------------------|
Ab|-3-3-3-3-2-2-2-2-0-0-0-0---------------------------------|
Eb|-------------------------3-3-3-3-1-1-1-1-0-0-0-0---------|
Eb|---------------------------------------------------------|
Bb|---------------------------------------------------------|
Gb|---------------------------------------------------------|
Db|---------------------------------------------------------|
Ab|--5--5--5--5---------------------------------------------|
Eb|--------------3--3--3--3---------------------------------|




Riff 8


                                                                                                                                                                 


Eb|-------------------------------------------------------------|
Bb|-------------------------------------------------------------|
Gb|-------------------------------------------------------------|
Db|-------------------------------------------------5-5--5--7-7-|
Ab|-3-3-3-3-2-2-2-2-0-0-0-0-------------------------3-3--3--5-5-|
Eb|-------------------------3-3-3-3-1-1-1-1-0-0-0-0-------------|
   P.M. - - - - - - - - - - - - - - - - - - - - - >




Solo


                                                                                                                                                                 


Eb|-0--0--0--0--0--0----0-----0--0--0--0--0----0-----0--0--0--0--0--0--0-|
Bb|-5--5--5--5--5--4----4b^---5--5--5--5--5b---5b----5--5--5--5--4--4--4-|
Gb|----------------------------------------------------------------------|
Db|----------------------------------------------------------------------|
Ab|----------------------------------------------------------------------|
Eb|----------------------------------------------------------------------|
   
Eb|----------------------------------------------------------------------|
Bb|--5p0-4p0-5p0-7p0-5p0-4p0-5p0-7p0-5p0-7p0-9p0-7p0-5p0-4p0-5p0-4p0-----|
Gb|----------------------------------------------------------------------|
Db|----------------------------------------------------------------------|
Ab|----------------------------------------------------------------------|
Eb|----------------------------------------------------------------------|
Eb|-0--0--0--0--0--0----------12-------12---------------------15b----15~-|
Bb|-5--5--5--5--5-/7-----12---12--12-------12--15b----15--12-------------|
Gb|----------------------14b------14b------------------------------------|
Db|----------------------------------------------------------------------|
Ab|----------------------------------------------------------------------|
Eb|----------------------------------------------------------------------|
Eb|------19b---19b---19b-19r---------------------------------------------|
Bb|----------------------------------------------------------------------|
Gb|--------------------------17~-----------------------------------------|
Db|----------------------------------------------------------------------|
Ab|----------------------------------------------------------------------|
Eb|----------------------------------------------------------------------|


Important: The song above is NOT stored on the Chordie server. The original song is hosted at www.kissasylum.com. Chordie works as a search engine and provides on-the-fly formatting. Chordie does not index songs against artists'/composers' will. To remove this song please click here.

This song is displayed as text-only. Transposing and tuning is only available for chordpro-songs.

Login - add to songbook

Rating click stars to rate

Layout
Accuracy

SHARE PAGE  




You need to log in to post comments