eToCache5 = ""; ?> Everytime I Look At You by Kiss - guitar chords, guitar tabs and lyrics - chordie

Everytime I Look At You

Kiss



--------------------

Transcribed by Emil Ortenmark, emil@kissasylum.com
Tuned down 1/2-step
Comments: There are two acoustic guitars here, on the left is Paul playing
the "a"-forms, and on the left is Bruce playing the "b"-forms. Both these
guitars have a capo at the 2nd fret. Now I know what you're thinking, "but
on the Unplugged video Bruce doesn't have a capo", and you're right. However,
that is so that he can play the solo in it's original positions and do the
low F during the bridge. On this studio recording, the acoustics have a capo,
the electrics do not. There are a few slight variations on that way cool main
figure but nothing hard. Bruce plays the solo pretty safe and throws out a
bunch of nice little major pentatonic lines in the process. Since ACSII tab
doesn't support rhythmic notation (at least not in any easily reabale way)
I've chosen to not notate the strum-patterns most of the time. I've listed
the chords, I think it's fairly easy to hear on the recording how they are
played. The arpegiation in Rhy. Fig 2b might not be totally accurate, the
amount of instruments, what with the orchestration and all, makes it hard
to make out. Despite some requests I've chosen not to list the chord names
on this tab as the chords are usually displayed in full so there should be
no problem recognizing them.
Key:
/ = slide up
\ = slide down
b = bend (whole step)
b^ = bend (1/2 step)
b^^ = bend (1 1/2 steps)
pb = pre-bend
r = release-bend
t = tap with righthand finger
h = hammer-on
p = pull-off
~ = Vibrato
* = Natural Harmonic

** = Artificial Harmonic
x = Dead notes (no pitch)
P.M. = Palm mute (- -> underneath indicates which notes)
(\) = Dive w\bar
(/) = Release w\bar
Tp = Tap w\plectrum
Rhythm Fig. 1a (Steel-string acoustic, capo 2nd fret)
Eb|--3----3---3-0--0--3--5------------------------------|
Bb|--3----3---3-1--3--5--7------------------------------|
Gb|--0----0---0-2--4--5--7------------------------------|
Db|--0----0-----2--4--5--7------------------------------|
Ab|--x----x-----0-----3--5------------------------------|
Eb|--3----3---------------------------------------------|

Rhythm Fig. 1b (Steel-string acoustic, capo 2nd fret)
Eb|--3----3----0--0--0--2------------------------------|
Bb|--3----3----1--3--1--3------------------------------|
Gb|--0----0----2--4--0--2------------------------------|
Db|--0----0----2--4--2--0------------------------------|
Ab|--x----x----0-----3---------------------------------|
Eb|--3----3--------------------------------------------|

Rhythm Fig. 2a (Steel-string acoustic, capo 2nd fret)
Eb|--3----3---3-0--0--3--5-------5--------5-------------|
Bb|--3----3---3-1--3--5--7----------7--------5h7--------|
Gb|--0----0---0-2--4--5--7------------7----------7------|
Db|--0----0-----2--4--5--7------------------------------|
Ab|--x----x-----0-----3--5------------------------------|
Eb|--3----3---------------------------------------------|

Rhythm Fig. 2b (Steel-string acoustic, capo 2nd fret)
Eb|--3----3----0--0--0--2-------2-------2-----0h2-------|
Bb|--3----3----1--3--1--3----------3------3-------3-----|
Gb|--0----0----2--4--0--2------------2------2-----------|
Db|--0----0----2--4--2--0-------------------------------|
Ab|--x----x----0-----3----------------------------------|
Eb|--3----3---------------------------------------------|

Rhythm Fig. 3a (Steel-string acoustic, capo 2nd fret)
Eb|--3----3---3-0--0--3--5------------------------------|
Bb|--3----3---3-1--3--5--7------------------------------|
Gb|--0----0---0-2--4--5--7------------7*----------------|
Db|--0----0-----2--4--5--7------------7*----------------|
Ab|--x----x-----0-----3--5-------5*---------------------|
Eb|--3----3---------------------------------------------|

Rhythm Fig. 4a (Steel-string acoustic, capo 2nd fret)
Eb|--3-----------------3--------3-----------------------|
Bb|--3-----------------1--------1-----------------------|
Gb|--0-----------------2--------0--------0--------------|
Db|--0-----------------3--------2----0h2----------------|
Ab|--x--------------------------3-----------------------|
Eb|--3--------------------------------------------------|
Eb|--3--------2---------1--------0----------------------|
Bb|--3--------3---------1--------1----1--3--------------|
Gb|--0--------4---------2--------0----0--0--------------|
Db|--0--------4---------3--------2----2--0--------------|
Ab|--x--------2---------3--------3----3--2--------------|
Eb|--3------------------1-------------------------------|

Rhythm Fig. 4b (Steel-string acoustic, capo 2nd fret)
Eb|--3-----------------3--------3-----------------------|
Bb|--3-----------------1--------1-----------------------|
Gb|--0-----------------2--------0--------0--------------|
Db|--0-----------------3--------2----0h2----------------|
Ab|--x--------------------------3-----------------------|
Eb|--3--------------------------------------------------|
Eb|--3--------2---------1----0--------------------------|
Bb|--3--------3---------1----1--------------------------|
Gb|--0--------4---------2----0--------0-------0---------|
Db|--0--------4---------3----2------2---2---0---0-------|
Ab|--x--------2---------3----3----3-------2-------------|
Eb|--3------------------1-------------------------------|

Rhythm Fig. 5a (Steel-string acoustic, capo 2nd fret)
Eb|--0-----------------2----2--2-2-3--2--0--2-----------|
Bb|--1-----------------3----3--3-3-3--3--3--3-----------|
Gb|--2-----------------2----2------2--2--2--2-----------|
Db|--2-----------------0----0------0--0--0--0-----------|
Ab|--0--------------------------------------------------|
Eb|-----------------------------------------------------|
Eb|--0-----------------0--------2-----------------------|
Bb|--1-----------------1--------3-----------------------|
Gb|--2-----------------0--------2-----------------------|
Db|--2-----------------2--------0-----------------------|
Ab|--0-----------------3--------------------------------|
Eb|-----------------------------------------------------|

Rhythm Fig. 5b (Steel-string acoustic, capo 2nd fret)
Eb|--0-----------------2----2--2-2-2h3-2--0-------------|
Bb|--1-----------------3----3--3-3-3---------3----------|
Gb|--2-----------------2----2---------------------------|
Db|--2-----------------0----0---------------------------|
Ab|--0--------------------------------------------------|
Eb|-----------------------------------------------------|
Eb|--0-----------------0--------2-----------------------|
Bb|--1-----------------1--------3-----------------------|
Gb|--2-----------------0--------2-----------------------|
Db|--2-----------------2--------0-----------------------|
Ab|--0-----------------3--------------------------------|
Eb|-----------------------------------------------------|

Rhythm Fig. 6a (Steel-string acoustic, capo 2nd fret)
Eb|--0--------2---------3--------0--0--3--5-------------|
Bb|--0--------3---------3--------1--3--5--7-------------|
Gb|--0--------2---------0--------2--4--5--7-------------|
Db|--2--------0---------0--------2--4--5--7-------------|
Ab|--2------------------x--------0-----3--5-------------|
Eb|--0------------------3-------------------------------|
Eb|------5--------3-3-3-3-3/5---------------------------|
Bb|---------7-----5-5-5-5-5/7---------------------------|
Gb|-----------7---5-5-5-5-5/7---------------------------|
Db|---------------5-5-5-5-5/7---------------------------|
Ab|-----------------------------------------------------|
Eb|-----------------------------------------------------|

Rhythm Fig. 6b (Steel-string acoustic, capo 2nd fret)
Eb|--0--------2---------3--------0--0--0--2-------------|
Bb|--0--------3---------3--------1--3--1--3-------------|
Gb|--0--------2---------0--------2--4--0--2-------------|
Db|--2--------0---------0--------2--4--2--0-------------|
Ab|--2------------------x--------0-----3----------------|
Eb|--0------------------3-------------------------------|
Eb|------5--------3-3-3-3-3/5---------------------------|
Bb|---------7-----5-5-5-5-5/7---------------------------|
Gb|-----------7---5-5-5-5-5/7---------------------------|
Db|-----------------------------------------------------|
Ab|-----------------------------------------------------|
Eb|-----------------------------------------------------|

Rhythm Fig. 7a (Steel-string acoustic, capo 2nd fret)
Eb|--0---0-------------2--------3-----3-----0--0--3--5--|
Bb|--0------0--------3----3-----3--------3--1--3--5--7--|
Gb|--0--------0----2--------2---0--0--------2--4--5--7--|
Db|--2-----------0--------------0-----------2--4--5--7--|
Ab|--2--------------------------x-----------0-----3--5--|
Eb|--0--------------------------3-----------------------|
Eb|------5--------3-3-3-3-3/5---------------------------|
Bb|---------7-----5-5-5-5-5/7---------------------------|
Gb|-----------7---5-5-5-5-5/7---------------------------|
Db|---------------5-5-5-5-5/7---------------------------|
Ab|-----------------------------------------------------|
Eb|-----------------------------------------------------|

Rhythm Fig. 7b (Steel-string acoustic, capo 2nd fret)
Eb|--0---0-------------2--------3--------0--0--0--2-----|
Bb|--0------0--------3----3-----3--------1--3--1--3-----|
Gb|--0--------0----2--------2---0--------2--4--0--2-----|
Db|--2-----------0--------------0--------2--4--2--0-----|
Ab|--2--------------------------x--------0-----3--------|
Eb|--0--------------------------3-----------------------|
Eb|------5----10----3-3-3-3-3/5-------------------------|
Bb|---------7-----7-5-5-5-5-5/7-------------------------|
Gb|-----------------5-5-5-5-5/7-------------------------|
Db|-----------------------------------------------------|
Ab|-----------------------------------------------------|
Eb|-----------------------------------------------------|

Rhythm Fig. 8a (Steel-string acoustic, capo 2nd fret)
Eb|--3--------3------------3--------3-------------------|
Bb|--3--------1------------3--------1-------------------|
Gb|--0--------0--------0---0--------0--------0----------|
Db|--0--------2----0h2-----0--------2----0h2------------|
Ab|--x--------3------------x--------3-------------------|
Eb|--3---------------------3----------------------------|

Rhythm Fig. 8b (Steel-string acoustic, capo 2nd fret)
Eb|--3----------------3------------3--------3-----------|
Bb|--3------1p0---0---1------------3--------1-----------|
Gb|--0----0-----2---0-0--------0---0--------0--------0--|
Db|--0----------------2----0h2-----0--------2----0h2----|
Ab|--x----------------3------------x--------3-----------|
Eb|--3-----------------------------3--------------------|

Rhythm Fig. 9 (Distorted electric)
Eb|-----------------------------------------------------|
Bb|-----------------------------------------------------|
Gb|-----------------------5-----------------------------|
Db|--3--------------------5-----------------------------|
Ab|--3--------------------3--------3--5--7--3-----------|
Eb|--1--------1--3--5-----------------------------------|
Eb|-----------------------------------------------------|
Bb|-----------------------------------------------------|
Gb|--------------------------7--------7----5------------|
Db|--5-----------------------7--------7----5------------|
Ab|--5------------5--5h7-5---5--------5----3------------|
Eb|--3--------5/7---------------------------------------|
Eb|-----------------------------------------------------|
Bb|-----------------------------------------------------|
Gb|-----------------------5-----------------------------|
Db|--3--------------------5-----------------------------|
Ab|--3--------------------3--------3--5--7--3-----------|
Eb|--1--------1--3--5-----------------------------------|
Eb|-----------------------------------------------------|
Bb|-----------------------------------------------------|
Gb|--7------7--7----------------------------------------|
Db|--7------7--7---------2------2--2--------------------|
Ab|--5------5--5---------2------2--2--------------------|
Eb|----------------------0------0--0--------------------|

Rhythm Fig. 10 (Distorted electric)
Eb|-----------------------------------------------------|
Bb|---------------------3------3------------------------|
Gb|--2------2-----------2------2------------------------|
Db|--2------2-----------0------0------------------------|
Ab|--0------0-------------------------------------------|
Eb|-----------------------------------------------------|
Eb|-----------------------------------------------------|
Bb|---------------------3--------3----------------------|
Gb|--2------2-----------2--------2----------------------|
Db|--2------2-----------0--------0----------------------|
Ab|--0------0-------------------------4-----------------|
Eb|-----------------------------------------------------|

Rhythm Fig. 11 (Distorted electric)
Eb|-----------------------------------------------------|
Bb|-----------------------------------------------------|
Gb|--4------------7-----9-------------------------------|
Db|-----------------------------------------------------|
Ab|--2------------5-----7-------------------------------|
Eb|-----------------------------------------------------|
Eb|-----------------------------------------------------|
Bb|-----------------------------------------------------|
Gb|--4--------7-----------------------------------------|
Db|-----------------------------------------------------|
Ab|--2--------5---------7-------------------------------|
Eb|---------------------0-------------------------------|

Rhythm Fig. 12a (Steel-string acoustic, capo 2nd fret)
Eb|--3----3----0--0--0-----3----------------------------|
Bb|--3----3----1--3--1-----3----------------------------|
Gb|--0----0----2--4--0-----0----------------------------|
Db|--0----0----2--4--2-----0----------------------------|
Ab|--x----x----0-----3-----x----------------------------|
Eb|--3----3----------------3----------------------------|

Rhythm Fig. 12b (Steel-string acoustic, capo 2nd fret)
Eb|--3----3----0--0--3-----3----------------------------|
Bb|--3----3----1--3--5-----3----------------------------|
Gb|--0----0----2--4--5-----0----------------------------|
Db|--0----0----2--4--5-----0----------------------------|
Ab|--x----x----0-----3-----x----------------------------|
Eb|--3----3----------------3----------------------------|

Riff 1 (Distorted electric)
Eb|-----------------------------------------------------|
Bb|-----------------------------------------------------|
Gb|-----------------------------------------------------|
Db|-----------------------------------------------------|
Ab|--12\------------------------------------------------|
Eb|-----------------------------------------------------|

Riff 2 (Distorted electric)
Eb|-----------------------------------------------------|
Bb|-----------------------------------------------------|
Gb|-----------------------------------------------------|
Db|------------7-----5p-4-2h-4--2~----2~-----2----------|
Ab|--5---7/-9-------------------------------------------|
Eb|-----------------------------------------------------|

Riff 3 (Distorted electric)
Eb|--19-------------------------------------------------|
Bb|------------------12------------------/14~--12-------|
Gb|---------------------11b---9-11-9~----/13~--11-------|
Db|-----------------------------------------------------|
Ab|-----------------------------------------------------|
Eb|-----------------------------------------------------|

Solo (Distorted electric)
Eb|------------------------------------------------------------------|
Bb|-------------2-----------------------------------7~-----7p5-------|
Gb|-------------2-----2--4b--r4-2h-4--2~------2/-7-------------------|
Db|------------------------------------------------------------------|
Ab|--0----2/4--------------------------------------------------------|
Eb|------------------------------------------------------------------|
Eb|------------------------------------------------------------------|
Bb|------10---------14---15p14-12----------------(10)----------------|
Gb|-------------------------------14-----11/--13--11~----------------|
Db|--/11--------/14----------------------12/--14--12~----------------|
Ab|------------------------------------------------------------------|
Eb|------------------------------------------------------------------|

Let ring - - - - - >
Eb|---------------------------14/--16--14~---------------------------|
Bb|--17-----17----------------15/--17--15~------------------15-------|
Gb|--16b----16b--r16--14-----------------------14------14-------14---|
Db|-----------------------16-------------------14h-16----------------|
Ab|------------------------------------------------------------------|
Eb|------------------------------------------------------------------|

< 4x > Let ring - - - - - >
Eb|-------------------------------------------------------14---------|
Bb|--/14--------15p14------/17----15----14--------15/-17--15---------|
Gb|--/14-----14-------14---/16----14----14--------14/-16-------------|
Db|--/14-------------------/18----16----14---------------------------|
Ab|------------------------------------------------------------------|
Eb|------------------------------------------------------------------|

EVERY TIME I LOOK AT YOU
Paul Stanley, Bob Ezrin
 Rby. Fig 1a w/ Rby. Fig 1b
  (2x)
 Rby. Fig 4a w/ Rby. Fig 4b
Tryin' to say I'm sorry, didn't mean to break your heart
And find you waitin' up by the light of day
There's a lot I want to tell you, but I don't know where to start
And I don't know what I'd do if you walked away
 Rby. Fig 5a w/ Rby. Fig 5b
Ooh, baby I tried to make it, I just got lost along the way
 Rby. Fig 2a w/ Rby. Fig 2b
  (2x)
But every time I look at you, no matter what I'm goin' thru, it's easy to see
 Rby. Fig 6a w/ Rby. Fig 6b
And every time I hold you, the things I never told you, seem to come easily
'Cause you're everything to me
 Rby. Fig 8a w/ Rby. Fig 8b
 Rby. Fig 4a w/ Rby. Fig 4b
I never really wanted to let you get inside my heart
I wanted to believe this would soon be ending
I thought it wouldn't matter, if it all just came apart
But now I realize I was just pretending
 Rby. Fig 5a w/ Rby. Fig 5b
Ooh, baby, I know I hurt you, but you can still believe in me
 Rby. Fig 2a w/ Rby. Fig 2b
  (2x)
But every time I look at you, no matter what I'm goin' thru, it's easy to see
 Rby. Fig 6a w/ Rby. Fig 6b
And every time I hold you, the things I never told you, seem to come easily
'Cause you're everything to me
 Riff 1
 Rby. Fig 9 w/ Riff 2
It's gonna take a little time to show you, just what you mean to me, oh yeah
It seems the more I get to know you, the more I need to make you see
You're everything I need, yeah
 Solo over Rby. Fig 10
Oho, I need ya, I need ya, I need ya...
 Rby. Fig 5a w/ Rby. Fig 5b, Rby. Fig 11 and Riff 3
Ooh, baby, baby, baby, I know I hurt you, but you can still believe in me
 Rby. Fig 3a w/ Rby. Fig 1b
But every time I look at you, no matter what I'm goin' thru, it's easy to see
 Rby. Fig 7a w/ Rby. Fig 7b
And every time I hold you, the things I never told you, seem to come easily
'Cause you're everything to me
 Rby. Fig 1a w/ Rby. Fig 1b
  (2x)
You're everything to me, you're everything to me
 Rby. Fig 12a w/ Rby. Fig 12b


variations - click chord images
Transpose chords:
Tuning:
Cool service:
View: Size:
A  A  A
Rating:
Layout:
  • Currently 0/5 Stars.
  • 1
  • 2
  • 3
  • 4
  • 5
 
Accuracy:
  • Currently 3.1/5 Stars.
  • 1
  • 2
  • 3
  • 4
  • 5
 
click stars to rate
Chordie recommends:
Get acoustic guitar lessons and electric guitar lessons at JamPlay.com
Songbook:
Login to add this song to your songbook
Support the artist
Preview/buy this song
MSN Music
Why this non-profit ad?

 
login to add comments/video/corrections