eToCache5 = ""; ?> crab by Weezer - guitar chords, guitar tabs and lyrics - chordie

crab

Weezer



e|--------------------------------------------------------|

B|--------------------------------------------------------|

G|-5--5--5-5-5-4~~~-7--7--7-7-7-5~~~-5--5--5-5--5-5-5-7-4-|

D|-----------------------------------7--7--7-7--7-7-7-9-6-|

A|--------------------------------------------------------|

E|--------------------------------------------------------|


 AmF
 Crab if you want her
 DmEFCFE
 She won't be coming down (down) down (down) down (down) down (down)
 FC
Crab if you want her
 FGC
She won't be coming down
 AmF
 Crab if you need it
 DmEFCFE
 She put her knickers on (on) on (on) on (on) on (on)
 FC
Crab if you need it
 FGC
She put her knickers on
 CE
She said she's feeling lonely
 DmAm
And I say that's OK
F Dm E ("Riff")
She won't be coming back 'round here, no way
 AmFDmEFCFEFCFGC
e|--------------------------------------------------------------------3--------------|
B|-----------------------------------5-3h5p3-1---------5~~~-5-3-1-3-5---3-5-3-1-1~~~-|
G|-/5-2---0-2--5-2---0-2--2-0h2p0---------------/2-0---------------------------------|
D|------2----------2--------------3------------------3-------------------------------|
A|-----------------------------------------------------------------------------------|
E|-----------------------------------------------------------------------------------|

 CE
She said she's feeling lonely
 DmAm
And I say that's OK
F Dm E ("Riff")
She won't be coming back 'round here, no way
 AmF
 Crab at the booty
 DmEFCFE
T'aint gonna do no good (good) good (good) good (good) good (good)
 FC
Crab at the booty
 FGC
T'aint gonna do no good
("Background Solo" Throughout Outro)
 FC
No, crab at the booty
 FGC
T'aint gonna do no good
+-------------------------------------------------------------+

"Riff"
e|-------------|
B|-------------|
G|-------------|
D|-------5-6-7-|
A|-5-6-7-------|
E|-------------|

"Background Solo"
e|------------3--------------|
B|-/5-3-1-3-5---3-5-3-1-1~~~-|
G|---------------------------|
D|---------------------------|
A|---------------------------|
E|---------------------------|



Am C Dm E F G
variations - click chord images
Transpose chords:
Tuning:
Cool service:
View: Size:
A  A  A
Rating:
Layout:
  • Currently 2.8/5 Stars.
  • 1
  • 2
  • 3
  • 4
  • 5
 
Accuracy:
  • Currently 2.5/5 Stars.
  • 1
  • 2
  • 3
  • 4
  • 5
 
click stars to rate
Chordie recommends:
Learn to play guitar with video-based, online guitar lessons at JamPlay.com
Songbook:
Login to add this song to your songbook
Support the artist
Preview/buy this song
MSN Music
Why this non-profit ad?

 
login to add comments/video/corrections