Island in the Sun

Weezer



 EmAmDG
e|-3-3-x-5-5-2-2-2-x-3-3-x-|

B|-5-5-x-5-5-3-3-3-x-3-3-x-|
G|-4-4-x-5-5-2-2-2-x-4-4-x-|
D|-------------------------| x4
A|-------------------------|
E|-------------------------|
Hep Hep
 EmAmDGEmAm
       When you're on a holiday 
 DGEmAm
You can't find the words to say
 DGEmAm
All the things that come to you
 DGEmAm
And I want to feel it to
("Background Solo" Throughout Chorus)
 DGEmAm
On an island in the sun
 DGEmAm
We'll be playin' and havin' fun
 DGEm
And it makes me feel so fine
 AmDG
I can't control my brain
 EmAmDG
                                                                                     

MAIN RIFF:
 
e|-3-3-x-5-5-2-2-2-x-3-3-x-|

B|-5-5-x-5-5-3-3-3-x-3-3-x-|
G|-4-4-x-5-5-2-2-2-x-4-4-x-|
D|-------------------------| x2
A|-------------------------|
E|-------------------------|
Hep Hep

 EmAmDGEmAm
       When you're on a golden sea
 DGEmAm
You don't need no memory
 DGEmAm
Just a place to call your own
 DGEmAm
As we drift into the zone
("Background Solo" Throughout Chorus)
 DGEmAm
On an island in the sun
 DGEmAm
We'll be playin' and havin' fun
 DGEm
And it makes me feel so fine
 AmDG
I can't control my brain
 DG
   We'll run away together
 DG
   We'll spend some time forever
 CAmD
   We'll never feel bad anymore
 EmAmDG
                                                                                     
e|-3-3-x-5-5-2-2-2-x-3-3-x-|

B|-5-5-x-5-5-3-3-3-x-3-3-x-|
G|-4-4-x-5-5-2-2-2-x-4-4-x-|
D|-------------------------| x3
A|-------------------------|
E|-------------------------|
Hep Hep
 EmAmDGEmAmDGEmAm
                                                                                           
e|---------------------------------|

B|---------------------------------|
G|---9-7---------------------------|
D|-5-----10-9-10-9---5-9-7-5-4-5-5-| x2
A|---------------------------------|
E|---------------------------------|
("Background Solo" Throughout Chorus)
 DGEmAm
On an island in the sun
 DGEmAm
We'll be playin' and havin' fun
 DGEm
And it makes me feel so fine
 AmDG
I can't control my brain
 DG
   We'll run away together
 DG
   We'll spend some time forever
 CAmD
   We'll never feel bad anymore
("Background Solo" After Playing Twice)
 EmAmDG
                                                                                   
e|-3-3-x-5-5-2-2-2-x-3-3-x-|

B|-5-5-x-5-5-3-3-3-x-3-3-x-|
G|-4-4-x-5-5-2-2-2-x-4-4-x-|
D|-------------------------| x8
A|-------------------------|
E|-------------------------|
Hep Hep
(We'll never feel bad anymore)
(No, No)
+-------------------------------------------------------------+

"Background Solo"
 EmAmDG
                                                                                   
e|---------------------------------|

B|---8---8---8---8---7---7---8---8-|
G|-9---9---9---9---7---7---7---7---|
D|---------------------------------|
A|---------------------------------|
E|---------------------------------|

this is spot-on - somebody please delete the other entries for this song as they are not even close.
For tone use a semi-hollowbody guitar, bridge pickup position into a Fender deluxe with reverb and a little chorus.


Corrected by vizeds. View original
Am C D Em G
variations - click chord images
Transpose chords:
Tuning:
Cool service:
View: Size:
A  A  A
Rating:
Layout:
  • Currently 3.6/5 Stars.
  • 1
  • 2
  • 3
  • 4
  • 5
 
Accuracy:
  • Currently 3.5/5 Stars.
  • 1
  • 2
  • 3
  • 4
  • 5
 
click stars to rate
Chordie recommends:
Get acoustic guitar lessons and electric guitar lessons at JamPlay.com
Songbook:
Login to add this song to your songbook
Support the artist
Preview/buy this song
MSN Music
Why this non-profit ad?

 
login to add comments/video/corrections