Guitar Tabs, Chords and Lyrics


Untitled   Unknown













NNTP-Posting-Host: news.cs.utexas.edu

I was listening to the radio yesterday, and I heard a few bars of a song
that I thought sounded nice; I liked the way one measure led into the
other.  I tried to play it on my guitar, and then I just kind of ran with
it.  I ended up with the first piece of music (such as it is) that I've
ever written.  It doesn't have any words, and it doesn't really even have a
melody, but it sounds kind of nice.  And it's still in kind of a state of
flux; I keep changing little bits here and there.

Anyways, try it out and see what you think.  Like I said, I've never
written _anything_ before, so don't expect much.  If you have any
suggestions for new chords or patterns, let me know.  If you think it's
lame, don't let me know; I don't want to hear it. :)

Oh, and for the record, the part I borrowed from Cheryl Wheeler's "Arrow"
is the transition from D/F# to G, where it goes A-B-G.  The rest of it came
from  my head, although I have to give credit to Christine Lavin, Shawn
Colvin, Mary Chapin Carpenter, and Indigo Girls for some of the ideas. :)

Adam

UNTITLED (copyright 1995, Adam Schneider)   [couldn't hurt!]
-----------------------------------------

Capo at the 5th fret, standard tuning.

 C                D6/F#            G                C
|----------------|----------------|----------------|----------------|
|----------1-----|----------0-----|----------0-----|1---------1-----|
|------0-------0-|------2-------0-|------0-------0-|------0-------0-|
|----2-------2---|----0-------0---|----0-------0---|----2-------2---|
|3-------3-------|----------------|----------------|3-------3-------|
|----------------|2-------2-------|3-------3-------|----------------|

 C                D/F#             G                E
|----------------|----------------|----------------|----------------|
|--1-------1-----|--3-------3-----|--0-------0-----|--0-------0-----|
|------0-------0-|------2-------0-|------0-------0-|------1-------1-|
|----2-------2---|----0-------0---|----0-----------|----2-------2---|
|3-------3-------|----------------|----------------|----------------|
|----------------|2-------2-------|3-------3---2---|0-------0-------|

 Am               D(9)/F#          G                Em
|----------------|------0---------|------3---------|------0---------|
|--1-------1-----|--3-------3-----|--0-------0-----|--0-------0-----|
|------2-------2-|--------------0-|--------------0-|--------------0-|
|----2-------2---|----0-------0---|----0-------0---|----2-------2---|
|0-------0-------|----------------|----------------|----------------|
|----------------|2-------2-------|3-------3-------|0-------0-------|

 C                D/F#  D6/F#      G                G
|----------------|----------------|----------------|--------3-------||
|----------1-----|--3---0---------|----------------|--0-------------||
|------0-------0-|----------2---0-|------0-------0-|----------------||
|----2-------2---|----0-------0---|----0-------0---|----0-------0---||
|3-------3-------|----------------|--------0=2-----|----------------||
|----------------|2-------2-------|3---------------|3-------3-------||

 C                D/F#             G                Em  Em(9) Em
|0---------0-----|0=2-------------|3---------------|------2---0-----|
|------1---------|------3---------|----------0-----|--0-------------|
|--------------0-|----------2-----|------0---------|--------------0-|
|----2-------2---|----0-------0---|----0-------0---|----2-------2---|
|3-------3-------|----------------|----------------|----------------|
|----------------|2-------2-------|3-------3-------|0-------0-------|

 C                G/B              Am               Am
|----------------|----------------|----------------|----------------|
|----------1-----|--3-------0-----|--1-------1-----|0=1-------1-----|
|------0-------0-|------0-------0-|------2-------2-|------2---------|
|----2-------2---|----0-------0---|----2-------2---|----2-------2---|
|3-------3-------|2-------2-------|0-------0-------|0-------0-------|
|----------------|----------------|----------------|----------------|

 C(9)             D/F#             G5        G      Em         Em/D
|0---------0-----|2---------2-----|3---------------|0---------------|
|------3---------|------3---------|------3---0-----|------0---------|
|--------------0-|----------------|----------------|----------0-----|
|----2-------2---|----0-------0---|----0-------0---|----2-------0---|
|3-------3-------|----------------|----------------|----------------|
|----------------|2-------2-------|3-------3-------|0-------0-------|

 C                C                D/F#             D/F#
|----------------|----------------|----------------|2---------------||
|----------1-----|--1-------1-----|--3-------3-----|3---------------||
|------0-------0-|------0-------0-|------2---------|2---------------||
|----2-------2---|----2-------2---|----0-------0---|0---------------||
|3-------3-------|3-------3-------|(slowing...)----|0---------------||
|----------------|----------------|2-------2-------|2---------------||

 C                D/F#    D6/F#    G                G
|----------------|----------------|----------------|--------3-------|
|0=1-------1-----|--3-------0-----|----------------|--0-------------|
|------0-------0-|------2-------0-|------0-------0-|----------------|
|----2-------2---|----0-------0---|----0-------0---|----0-------0---|
|3-------3-------|----------------|--------0=2-----|----------------|
|----------------|2-------2-------|3---------------|3-------3-------|

 C                D6               Em(9)            Em
|----------------|----------------|----------------|------------||
|--1-------1-----|--0-------0-----|--0-------0-----|------------||
|------0-------0-|------2-------0-|------0-------0-|------------||
|----2-------2---|----4-------4---|----4-------4---|----------------||
|3-------3-------|5-------5-------|7-------7-------|----------------||
|----------------|----------------|(slowing...)----|0---------------||

==-=--=---=----=-----=-------=--------=--------=-------=-----=----=---=--=-==
Adam Schneider            schn0170@maroon.tc.umn.edu          Minneapolis, MN
      If you want guitar chords for Mary Chapin Carpenter, Indigo Girls,
       Mary Karlzen, Nanci Griffith, etc., go to my World Wide Web page:
           http://www-bprc.mps.ohio-state.edu/cgi-bin/hpp/acs.html
==-=--=---=----=-----=-------=--------=--------=-------=-----=----=---=--=-==




Important: The song above is NOT stored on the Chordie server. The original song is hosted at www.lindesign.se. Chordie works as a search engine and provides on-the-fly formatting. Chordie does not index songs against artists'/composers' will. To remove this song please click here.

This song is displayed as text-only. Transposing and tuning is only available for chordpro-songs.

Login - add to songbook

Rating click stars to rate

Layout
Accuracy

SHARE PAGE  




You need to log in to post comments