Guitar Tabs, Chords and Lyrics


On green dolphin street   Bronislaw Kaper














	ON GREEN DOLPHIN STREET
	Bronislaw/Kaper

	Tablature by Jonathan Byrd

This is a solo fingerstyle arrangement of one of my favorite old jazz
tunes, in the key of A.  I have given only the bare bones, expecting
that you will embellish it to your own taste.

The top line of the tablature lists the basic chord progression.  The
second line denotes the beat.  The other six lines are the guitar
strings, as labelled.  This is in standard 32-bar form; play the first
8 bars, and then the 8 bars labelled [1].  Repeat the first 8 bars,
and play the 8 bars labelled [2].

I wrote the tablature from memory, without a guitar to help me check
it.  If you find any errors, I'd appreciate it if you'd let me know.

Anyway, I hope you like it.
     A                     AM7       G/A
     1   2   3   4   1   2   3   4   1   2   3   4   1   2   3   4   

e ||-5---------------------4---------3-----------------------------
B ||-5-------------------------5-----5-----------------------------
G ||-6---------------------------6---5-----------------------------
D ||-7-------------------------------5-----------------------------
A ||-0-------------------------------0-----------------------------
E ||---------------------------------------------------------------
   Gb/A            F/A             AM7              (G7    F#7)
   1   2   3   4   1   2   3   4   1   2   3   4   1   2   3   4   

e -2---------------1---------------0-----------------------------
B -4-------------------3-----------2-----------------------------
G -4-----------------------3-------1----------------(4)---(3)----
D -4-------------------------------2----------------(3)---(2)----
A -0---------------0---------------0----------------(5)---(4)----
E --------------------------------------------------(3)---(2)----
[1]

   Bm7             E7              AM7
   1   2   3   4   1   2   3   4   1   2   3   4   1   2   3   4   

e ---------------------0---1---3---0---0-------------------------
B -------3-----2---3---------------2-----------------------0-----
G -2-------4-------1---------------1-----------------------2-----
D -4-------------------------------2-----------------------2-----
A -2-------------------------------0-----------------------0-----
E -----------------0---------------------------------------------
   Dm7             G7              CM7                     E7
   1   2   3   4   1   2   3   4   1   2   3   4   1   2   3   4   

e -------3-------------3---4---6---3---3-------------------4-----||
B -3-------3---5---6---------------5-----------------------3-----||
G -5---------------4---------------4-----------------------4-----||
D -3---------------3---------------------------------------------||
A -5-------------------------------3-----------------------------||
E -----------------3---------------------------------------0-----||

[2]

   Bm7     Bm7/A   G#m7b5  C#7b9   F#m     F#m7    F#m6    G#7
   1   2   3   4   1   2   3   4   1   2   3   4   1   2   3   4   

e -----------------------------9---7---5---5---------------4-----
B -----3-------2---3---5---6-------7-----------2-----------4---7-
G -2-------4-------4-------4-------8---------------2-------5-----
D -4-----------------------3-----------------------1-------------
A -2-------0---------------4-------------------------------------
E -----------------4-------------------------------2-------4-----
   C#m7    F#7     Bm7     E7      AM7
   1   2   3   4   1   2   3   4   1   2   3   4   1   2   3   4   

e -----------------0---0---0---0---0-----------------------------
B -5---5---5---5---3-------0-------2-----------------------------
G -4-------3-------4-------1-------1-----------------------------
D -6---------------4-------0-------2-----------------------------
A -4---------------2-------2-------0-----------------------------
E ---------2---------------0-------------------------------------
--
jonathan byrd
jon@apollo.med.utah.edu


Important: The song above is NOT stored on the Chordie server. The original song is hosted at www.lindesign.se. Chordie works as a search engine and provides on-the-fly formatting. Chordie does not index songs against artists/composers will. To remove this song please click here.

This song is displayed as text-only. Transposing and tuning is only available for chordpro-songs.

Login - add to songbook

Rating click stars to rate

Layout
Accuracy

SHARE PAGE  




You need to log in to post comments