Guitar Tabs, Chords and Lyrics


No regrets   Various Artists



Received: from jhunix.hcf.jhu.edu ([128.220.2.5]) by undergrad.math.uwaterloo.ca with SMTP id ; Mon, 4 Oct 1993 09:57:17 -0400
Received: from Listserv ([127.0.0.1]) by jhunix.hcf.jhu.edu with SMTP id ; Mon, 4 Oct 1993 09:55:19 -0400
Message-Id: 
X-Archive-Key: GUIT
Comment: Accoustic Guitar mailing list
Precedence: junk
Originator: guit@jhunix.hcf.jhu.edu
Errors-To: guit@jhunix.hcf.jhu.edu
Reply-To: jmp@moscom.com (Joe Palumbos)

Version: 5.5.JHU3

To: Multiple recipients of list 


Status: OR

Here's my latest tab for 'No Regrets' which includes the solo.  I've also
posted this to r.m.m.g.accoustic.  



                      NO REGRETS

                        H.Tobias, R.Ingraham
                        arr. by Joe Palumbos

WORDS:

Verse 1:

  No Regrets
  Tho our love affair has gone astray
  No Regrets
  Tho I'll care while you're away

  Some how our happy romance 
  Ended suddenly
  But still in my heart you'll be
  Forever mine

Verse 2:

  No Regrets
  Although you've found somebody new
  No Regrets
  No matter what you say or do

  I know our love will linger
  when the other love forgets
  so I'll say good bye with 
  No regrets.


Sequence:

Verse 1 (Intro)
Verse 1 (Part-A, Part-B1)
Verse 2 (Part-A, Part-B2) 
Lead-in to Part-A
Verse 1 (Part-A, Part-B1)
Solo    (Part-A, Part-B1) 
Verse 2 (Part-A, Part-B2) 
Ending


INTRO:
(very slowly)
 
  Amaj7add6                   Db7-sus4  Db7
|------2-------------------------2-----------------------------|
|-----2-------------------------2----------6-------------------|
|----1-------------------------4----------4--------------------|
|---2------------------------------------3---------------------|
|--0-----------------0--2--3--4---------4----------------------|
|--------------------------------------------------------------|
 
           F#m7-9              Ab7-sus4           Ab7b9
|--------------4-------------------------------------5--------|
|-------------2----------------------9------------------------|
|------------2---------------------11-11------------5---------|
|-----------2--------------------11----------------4----------|
|--4-2--------------------------------------------------------|
|------5-4-2-------------------11-------11s-------4-----------|
 
     Dmaj7add6                 E7add6
|--------7-------------------------9-------------------------|
|-------7----------------------------------------------------|
|------6-------------------------7---------------------------|
|-----7-------------------------6----------------------------|
|----5----------------------------7--------------------------|
|------------------------------0-----------------------------|
 
     Amaj7    Abm7     F#m7     A
|------------------------------------------------------------|
|------6--------4--------2---------2-------------------------|
|------7--------4--------2--------2--------------------------|
|-----7--------4--------2--------2---------------------------|
|------------------------------------------------------------|
|----5-----5--4-----4--2-----2--0----------------------------|
 
     (slower still)
     B7add6...       B7
|--------------7---7-----------------------------------------|
|------------9---8---7---------------------------------------|
|----------8-------------------------------------------------|
|--------7---------------------------------------------------|
|------9-----------------------------------------------------|
|----7-------------------------------------------------------|
 
     E7add9
|------------------7H---------5H-----------------------------|
|------------7H------7H-----5H-------------------------------|
|--------------7H------7H------------------------------------|
|--------6---------------------------------------------------|
|---------7-------------------------------------7------------|
|----0--------------------------------------------0---2---4--|
 


VERSE Part-A:

   Amaj7              F#m7                Db7sus4            Abm7
|------------------|--2----------------|--4---------------|----4--------------|
|--5-----5---------|--2----------------|--7---------------|----4--------------|
|--6-----6---------|--2----------------|--4---------------|----4--------------|
|--6-----6---------|--2----------------|------------------|----4--------------|
|------------------|--------------2----|--4---5---4-------|--------------4----|
|--5---0---5---4---|--2---4---5--------|--------------5---|--4---5---7--------|
   1 . 2 . 3 . 4 .    1 . 2 . 3 . 4 .    1 . 2 . 3 . 4 .    1 . 2 . 3 . 4 . 
 
   F#m7               B6                  Ab-sus4#5          Ab7
|--2---------------|3s4----------------|------------------|-------------------|
|--2---------------|3s4----------------|--7-7-------------|--4----------------|
|--2---------------|3s4----------------|--6-6-------------|--5----------------|
|--2---------------|-------------------|--7-7-------------|--4----------------|
|--------------2---|------5---4--------|--6---4-----------|-------------------|
|--2---4---5-------|--------------5----|----------7---5---|--4---2---0---4----|
   1 . 2 . 3 . 4 .    1 . 2 . 3 . 4 .    1 . 2 . 3 . 4 .    1 . 2 . 3 . 4 . 

 
VERSE Part-B1 (1st time):

   Dmaj7              E6                  Amaj7              F#m7
|--5-----5---------|----9--------------|------------------|--2-2--------------|
|--7-----7---------|----9--------------|----5-------------|--2-2--------------|
|--6-----6---------|----9--------------|----6-------------|--2-2--------------|
|--7-----7---------|-------------------|----6-------------|--2-2--------------|
|--5-------5-------|-------------------|------------------|--------------1----|
|------5-------5---|--0-----0-2---4----|--5---0---5---4---|--2---4---5--------|
   1 . 2 . 3 . 4 .    1 . 2 . 3 . 4 .    1 . 2 . 3 . 4 .    1 . 2 . 3 . 4 . 

   B7                 B7add9              E7add9             
|--2---------------|--4---3-2----------|--7.------8.------|--9.---------------|
|--4---------------|--4---3-2----------|--7.------8.------|--9.---------------|
|--2---------------|--4---3-2----------|--7.------8.------|--9.---------------|
|------------------|-------------------|------------------|-------------------|
|--2---3---2-------|-------------------|------------------|-------------------|
|--------------3---|--2---3---2---1----|--0.--------------|----0-----2---4----|
   1 . 2 . 3 . 4 .    1 . 2 . 3 . 4 .    1 . 2 . 3 . 4 .    1 . 2 . 3 . 4 . 

 
VERSE Part-B2 (2nd time):

   Dmaj7              E7add6              Amaj7   Bm7        Dbm7  Cm7
|--5-----5---------|----9--------------|------------7-----|--9-----8----------|
|--7-----7---------|----9--------------|----5-------7-----|--9-----8----------|
|--6-----6---------|----7--------------|----6-------7-----|--9-----8----------|
|--7-----7---------|----6--------------|----6-------7-----|--9-----8----------|
|--5-------5-------|-------------------|------------------|-------------------|
|------5-------5---|--0-----0-2---4----|--5-------7-------|--9-----8----------|
   1 . 2 . 3 . 4 .    1 . 2 . 3 . 4 .    1 . 2 . 3 . 4 .    1 . 2 . 3 . 4 . 

   Bm7                E7add6              Amaj7   Bm7        Dbm7  Cm7
|--7---------------|--9----------------|------------7-----|--9-----8----------|
|--7---------------|--9----------------|----5-------7-----|--9-----8----------| 
|--7---------------|--7----------------|----6-------7-----|--9-----8----------|
|--7---------------|--6----------------|----6-------7-----|--9-----8----------|
|--------------6---|--7----------------|------------------|-------------------|
|--7---9---10------|------0---2---4----|--5-------7-------|--9-----8----------|
   1 . 2 . 3 . 4 .    1 . 2 . 3 . 4 .    1 . 2 . 3 . 4 .    1 . 2 . 3 . 4 . 


Lead-In Back to Part-A:

   Bm7                E7add6              Amaj7   Bbm7       Bm7  E7
|-7----------------|--9----------------|------------6-----|--7-----8---9------|
|-7----------------|--9----------------|----5-------6-----|--7-----8---9------| 
|-7----------------|--7----------------|----6-------6-----|--7-----8---9------|
|-7----------------|--6----------------|----6-------6-----|--7----------------|
|--------------6---|--7----------------|------------------|-------------------|
|--7---9---10------|----7-0---2---4----|--5-------6-------|--7---0------------|
   1 . 2 . 3 . 4 .    1 . 2 . 3 . 4 .    1 . 2 . 3 . 4 .    1 . 2 . 3 . 4 . 
 

Ending:

   Bm7                E7add6              Amaj7   Bm7        Dbm7  Cm7
|--7---------------|--9----------------|------------7-----|--9-----8----------|
|--7---------------|--9----------------|----5-------7-----|--9-----8----------| 
|--7---------------|--7----------------|----6-------7-----|--9-----8----------|
|--7---------------|--6----------------|----6-------7-----|--9-----8----------|
|--------------6---|--7----------------|------------------|-------------------|
|--7---9---10------|------0---2---4----|--5-------7-------|--9-----8----------|
   1 . 2 . 3 . 4 .    1 . 2 . 3 . 4 .    1 . 2 . 3 . 4 .    1 . 2 . 3 . 4 . 

   Bm7                E7add6              Amaj7   Bm7        Dbm7  Cm7b5#9
|--7---------------|--9----------------|------------7-----|--9-----10---------|
|--7---------------|--9----------------|----5-------7-----|--9-----10---------| 
|--7---------------|--7----------------|----6-------7-----|--9-----9----------|
|--7---------------|--6----------------|----6-------7-----|--9-----8----------|
|--------------6---|--7----------------|------------------|------------9------|
|--7---9---10------|----7-0---2---4----|--5-------7-------|--9-----8----------|
   1 . 2 . 3 . 4 .    1 . 2 . 3 . 4 .    1 . 2 . 3 . 4 .    1 . 2 . 3 . 4 . 

   Bm7                E7add6                                        Amaj7b5add6
|--7---------------|--9-\--------------|---b8b7---5-------|--------------14---|
|--7---------------|--9--|-------------|------------8-6---|--------------14---|
|--7---------------|--7--|slide down---|----------------8-|--6-----------13---|
|--7---------------|--6--|-------------|------------------|----8-6-5-----13---|
|--------------6---|--7-/--------------|------------------|--------------0----|
|--7---9---10------|-------------------|------------------|-------------------|
   1 . 2 . 3 . 4 .    1 . 2 . 3 . 4 .    1 . 2 . 3 . 4 .    1 . 2 . 3 . 4 . 


Solo:
|--7---------------------------------------/[3]\----------------|
|--7--------------------------------/[3]\------2---3---4--------|
|--7-------------------------/[3]\----0-1--2-4------------------|
|-------------/[3]\--/[3]\---0-1-2--4---------------------------|
|------/[3]\------0--1-2-4--------------------------------------|
|------0-1-2--3-4-----------------------------------------------|
   
|--5---------------|------------------|------------------|-------------------|
|------------------|------------------|----------7-------|-------------------|
|------------------|---------s6-6---5-|--6-5-6-----6-5-4-|----------6---7-6s\|
|------------------|------------------|------------------|-------------------|
|------------------|------------------|------------------|-------------------|
|--------0h5---4---|--2---0-----------|------------------|------1------------|
   1 . 2 . 3 . 4 .    1 . 2 . 3 . 4 .    1 . 2 . 3 . 4 .    1 . 2 . 3 . 4 . 
|--------4s\--------|--------4.-------|------------------|-------------------|
|--------4s\--------|--------4.-------|------------------|-------------------|
|--------4s\-----6s\|--------4.-------|----------7-6-----|---------------5s--|
|--------4s\--------|--------4.--6---5|-h6-5h6-------5-4-|-------------------|
|-------------------|-----------------|------------------|-------------------|
|--------4s\--------|--------4.-------|------------------|---0-4---5---6-----|
   1 . 2 . 3 . 4 .     1 . 2 . 3 . 4 .   1 . 2 . 3 . 4 .     1 . 2 . 3 . 4 . 
|------------------|------------------|------------------|-----7-------6-----|
|----5-------5-----|----5-------------|------------5-7-8s|---9---9---8---8-7-|
|--6---6-5s6---6-5s|--6---5-4---6-4---|------4-5-6-------|-------------------|
|------------------|----------------5-|--6-7-------------|-------------------|
|------------------|------------------|--0---------------|-------------------|
|--7---------------|--0---------------|------------------|---0---------------|
   1 . 2 . 3 . 4 .    1 . 2 . 3 . 4 .    1 . 2 . 3 . 4 .     1 . 2 . 3 . 4 . 
                                                                    No  re-  
|----5h7p5-7---8---|--9-12----9-9-----|------------------|------------------|
|------------------|----9-----6-6---10|------10--9---9---|--7---7---6---6---|
|------------------|----------------7-|------7---6---6---|--4---4---3---3---|
|------------------|------------------|------------------|------------------|
|------------------|------------------|--0---------------|------------------|
|--7---------------|--0---------------|------------------|------------------|
   1 . 2 . 3 . 4 .    1 . 2 . 3 . 4 .    1 . 2 . 3 . 4 .    1 . 2 . 3 . 4 . 

   grets...
|------------------|
|--5-----5---------|
|--6-----6---------|
|--6-----6---------|
|------------------|
|--5---0---5---4---|
   1 . 2 . 3 . 4 . 




Important: The song above is NOT stored on the Chordie server. The original song is hosted at www.lindesign.se. Chordie works as a search engine and provides on-the-fly formatting. Chordie does not index songs against artists'/composers' will. To remove this song please click here.

This song is displayed as text-only. Transposing and tuning is only available for chordpro-songs.

Login - add to songbook

Rating click stars to rate

Layout
Accuracy

SHARE PAGE  




You need to log in to post comments