Chordie logo


Romance d amour   Various





To: jamesb (guitar sub.)

X-Mailer: ELM [version 2.3 PL11]
Message-Id: 

Here is the TAB for a beautiful spanish melody called Romance D'amour.  So if you
are sitting next to a woman you love, then tray to play this song for her.
It is not difficult to play it, so start practising now.
x/yB=Barre
A

7--7--7--|7--5--3--|3--2--0--|0--3--7--|12--12--12--|12--10--8--| e
-0--0--0-|-0--0--0-|-0--0--0-|-0--0--0-|- 0-- 0-- 0-|- 0-- 0--0-| h
--0--0--0|--0--0--0|--0--0--0|--0--0--0|- -0- -0- -0|- -0- -0--0| g
---------|---------|---------|---------|------------|-----------| d
---------|---------|---------|---------|------------|-----------| a
0--------|0--------|0--------|0--------|0-----------|0 --- -----| e

4/6B                6/6B

8--7--5--|5--7--8--|7--8--7--|11--8--7--|7--5--3--|3--2--0--|
-5--5--5-|-5--5--5-|-7--7--7-|- 7--7--7-|-0--0--0-|-0--0--0-|
--5--5--5|--5--5--5|--8--8--8|- -8--8--8|--0--0--0|--0--0--0|
---------|---------|---------|- --------|---------|---------|
0--------|0--------|---------|- --------|---------|---------|
---------|---------|7--------|7 --------|0--------|0-----3--|

                                          
                     ___________________    __________________
                     1.   B             |   |2. C             |
                                          
2--2--2--|2--3--2--| 0--------|--------- || 0--------|--------|
-1--1--1-|-0--0--0-| -0--0--0-|-0--0--0-*|| -0--0--0-|-0---0--|
--2--2--2|--2--2--2| --0--0--0|--0--0--0 || --0--0--0|--0-----|
---------|------1--| 2--------|--------- || 2--------|--------|
0--------|2--------| ---2-----|--2------*|| ---2-----|---2----|
---------|---------| ------3--|0-----3-- || ------3--|0-------|
            

D                                                 6/6B

4--4--4--|4--2--0--|---------|-------2-|9--9--9--|9--11--9--|
-0--0--0-|-0--0--0-|5--4--4--|4--3--4-0|-7--7--7-|-7-- 7--7-|
--1--1--1|--1--1--1|-2--2--2-|-2--2----|--8--8--8|--8- -8--8|
---------|---------|--4--4--4|--4--4---|---------|----------|
---------|---------|0--------|2--------|------9--|----------|
0--------|0--------|---------|---------|---------|7---------|

9--7--7--|7--9--11--|12--12--12--|12--11--10--|9--9--9--|9--7--5--|
-9--9--9-|-9--9-- 9-|- 9-- 9-- 9-|- 9-- 9-- 9-|-5--5--5-|-5--5--5-|
--9--9--9|--9--9- -9|- -9- -9- -9|- -9- -9- -9|--6--6--6|--6--6--6|
---------|----------|------------|------------|---------|---------|
---------|----------|------------|------------|0--------|0--------|
0--------|0---------|0-----------|0-----------|---------|---------|
                    ___________________   ___________________
                    |1.    E           |  |2.    F           |

4--4--4--|4--5--2--|0--------|-------02|| 0--------|---------|
-0--0--0-|-4--4--4-|-0--0--0-|-0--024--|| -0--0--0-|-0--02420|
--1--1--1|--2--2--2|--0--0--0|--0------|| --0--0--0|--0------|
---------|---------|---------|---------|| ---------|---------|
2--------|2--------|---2-----|---2-----|| ---2-----|---2-----|
---------|---------|0-----3--|0--------|| 0-----3--|0--------|

G

2--2--2--|2--3--2--|0--0--0--|0--2--0--|0--------|---------|
-0--0--0-|-0--0--0-|-1--1--1-|-1--1--1-|-0--0--0-|-0--0--0-|
--2--2--2|--2--2--2|--0--0--0|--2--2--2|--0--0--0|--0--0--0|
---------|1--------|---------|---------|---------|---------|
0-----2--|------2--|3-----2--|0--------|---2-----|---2-----|
---------|---------|---------|---------|0-----3--|0-----3--|
---------|---0----12---||   Touch the last three "12"'s easy, so you 
---------|--0---12-----||   only get the harmonies.
---------|-0--12-------||
---------|2------------||   The melody starts at A and then you play
------2--|-------------||   BACDEAFG.
0--------|-------------||

Good luck!  

John











Status: R

In article g5Au14WNTb@USENET, subject "TAB: Estudio from Tarrega", DRANIDIS%INFORMATIK.UNI-MUENCHEN.DE@USENET.ZER writes:

 P.S.Any classic music tab out there?

How about this:

ROMANCE
~~~~~~~
(Author unknown)
Subscribed my Marc Jackisch (mtj@tron.gun.de)

Part A:

||-7-----7-----7-----|-7-----5-----3-----|-3-----2-----0-----|
||---0-----0-----0---|---0-----0-----0---|---0-----0-----0---|
||-----0-----0-----0-|-----0-----0-----0-|-----0-----0-----0-|
||-------------------|-------------------|-------------------|
||-------------------|-------------------|-------------------|
||-0-----------------|-0-----------------|-0-----------------|
|-0-----3-----7-----|-12----12----12----|-12----10----8-----|
|---0-----0-----0---|---0-----0-----0---|---0-----0-----0---|
|-----0-----0-----0-|-----0-----0-----0-|-----0-----0-----0-|
|-------------------|-------------------|-------------------|
|-------------------|-------------------|-------------------|
|-0-----------------|-0-----------------|-0-----------------|

 |:V - - - - - - - - - - - - - - - - - \ |:VII - - - - - - -
|-8-----7-----5-----|-5-----7-----8-----|-7-----8-----7-----|
|---5-----5-----5---|---5-----5-----5---|---7-----7-----8---|
|-----5-----5-----5-|-----5-----5-----5-|-----8-----8-----7-|
|-------------------|-------------------|-------------------|
|-0-----------------|-0-----------------|-------------------|
|-------------------|-------------------|-7-----------------|

 - - - - - - - - - \
|-11----8-----7-----|-7-----5-----3-----|-3-----2-----0-----|
|---7-----7-----7---|---0-----0-----0---|---0-----0-----0---|
|-----7-----7-----7-|-----0-----0-----0-|-----0-----0-----0-|
|-------------------|-------------------|-------------------|
|-------------------|-------------------|-------------------|
|-7-----------------|-0-----------------|-0-----------------|
|-2-----2-----2-----|-2-----3-----2-----|-0-----0-----0-----|-0--------------||
|---1-----1-----1---|---0-----0-----0---|---0-----0-----0---|-0--------------||
|-----2-----2-----2-|-----2-----2-----2-|-----0-----0-----0-|-0--------------||
|-------------------|-------------------|-2-----------------|----------------||
|-0-----------------|-2-----------------|-------2-----------|----------------||
|-------------------|-------------------|-------------3-----|-0--------------||
Part B:
                                         |:II - - - - - - -
|-4-----4-----4-----|-4-----2-----0-----|-------------------|
|---0-----0-----0---|---0-----0-----0---|-5-----4-----4-----|
|-----1-----1-----1-|-----1-----1-----1-|---2-----2-----2---|
|-------------------|-------------------|-----4-----4-----4-|
|-------------------|-------------------|-------------------|
|-0-----------------|-0-----------------|-2-----------------|

  - - - - - - - - \  |:VII - - - - - - - - - - - - - - - - \
|-------------------|-9-----9-----9-----|-9-----11----9-----|
|-4-----3-----4-----|---7-----7-----7---|---7-----7-----7---|
|---2-----2-----2---|-----8-----8-----8-|-----8-----8-----8-|
|-----4-----4-----4-|-------------------|-------------------|
|-------------------|-------------------|-------------------|
|-2-----------------|-7-----------------|-7-----------------|

                            |:IX - - - - - - - - - - - - - -
|-9-----7-----7-----|-7-----9-----11----|-12----12----12----|
|---9-----9-----9---|---9-----9-----9---|---9-----9-----9---|
|-----9-----9-----9-|-----9-----9-----9-|-----9-----9-----9-|
|-------------------|-------------------|-------------------|
|-------------------|-------------------|-------------------|
|-0-----------------|-0-----------------|-0-----------------|

 - - - - - - - - - - - - - - - - - - - - - - -\|:V - - - - \
|-12----11----10----|-9-----9-----9-----|-9-----7-----5-----|
|---9-----9-----9---|---10----10----10--|---10----5-----5---|
|-----9-----9-----9-|-----9-----9-----9-|-----9-----6-----6-|
|-------------------|-------------------|-------------------|
|-------------------|-0-----------------|-0-----------------|
|-0-----------------|-------------------|-------------------|

                     |:II - - - - - - -\
|-4-----4-----4-----|-4-----5-----2-----|-0-----0-----0-----|-0--------------||
|---0-----0-----0---|---4-----4-----4---|---0-----0-----0---|-0--------------||
|-----1-----1-----1-|-----2-----2-----2-|-----1-----1-----1-|-1--------------||
|-------------------|-------------------|-2-----------------|-2--------------||
|-------------------|-2-----------------|-------2-----------|-2--------------||
|-0-----------------|-------------------|-------------4-----|-0--------------||

|:nn - - -\ : play barre on fret nn

Play A, A, B, A (parts).

The song is played with a simple a m i a m i a m i fingerpicking.
                                 p
Cheerio, Marc.

--
Marc Jackisch, Im Schaufsfeld 17, 4018 Langenfeld, West-Germany
mtj@tron.gun.de / mtj@tron.zer
-- THE ANSWER V2.03


Important: The song above is NOT stored on the Chordie server. The original song is hosted at www.lindesign.se. Chordie works as a search engine and provides on-the-fly formatting. Chordie does not index songs against artists/composers will. To remove this song please click here.

This song is displayed as text-only. Transposing and tuning is only available for chordpro-songs.

Login - add to songbook

Rating click stars to rate

Layout
Accuracy

SHARE PAGE  




You need to log in to post comments