Chordie logo

Taking a chance on love   Mike Neverisky



Received: from jhunix.hcf.jhu.edu ([128.220.2.5]) by undergrad.math.uwaterloo.ca with SMTP id ; Fri, 24 Sep 1993 09:18:58 -0400
Received: from Listserv ([127.0.0.1]) by jhunix.hcf.jhu.edu with SMTP id ; Fri, 24 Sep 1993 09:17:27 -0400
Message-Id: 
X-Archive-Key: GUIT
Comment: Accoustic Guitar mailing list
Precedence: junk
Originator: guit@jhunix.hcf.jhu.edu
Errors-To: guit@jhunix.hcf.jhu.edu
Reply-To: jmp@moscom.com (Joe Palumbos)

Version: 5.5.JHU3

To: Multiple recipients of list 


Status: OR

Hello - I'm glad we still have people in this list.  

I recently transcribed Mike Neverisky's arrangement of 'Taking a Chance on
Love' from the now-infamous TAPE-II.  He has made appropriate corrections
and given the OK to publish to the group.  (Anyone know who wrote it?)

It's a great arrangement;  I can even play the 1st verse all the way
through.  :^)  
I've also been working on 'Anji'.  

see ya,
-Joe.


                         Taking a Chance on Love
                            Arranged by Mike Neverisky
 
 
VERSE 1:

(1) 
    A       A#o        Bm      Bm/E       Bm      E7         A
 |----0-----0---0---|--0---------------|----------7-------|--0---------------|
 |----2-----2---2---|--3---3-3---------|----3-2-3---------|------0-----------|
 |----2-----3---3---|--2---2-2-------2-|--------------7---|--7-----6---------|
 |--------------2---|------4-------6---|------4-------6---|--7-----------2-3-|
 |--0---------------|--2---------------|--2-------7-------|----------0-4-----|
 |--------0---------|----------0-------|------------------|------------------|
    1 . 2 . 3 . 4 .    1 . 2 . 3 . 4 .    1 . 2 . 3 . 4 .    1 . 2 . 3 . 4 . 
 
 
(5)
    F#m     A          B7                 Bm      E          A       E+5
 |------------------|------------------|------------------|------------------|
 |----2---------2---|--2---0-0---------|----0-------------|------------------|
 |----2---------2---|--2---2-2---------|------------------|----------------5-|
 |--4---4---2---2---|--1---1-------1---|--7---7-6----s9-7-|------7-------6---|
 |------------------|--------------2---|------------------|--0---------7-----|
 |------------------|----------2-------|--7-------0-------|----------0-------|
    1 . 2 . 3 . 4 .    1 . 2 . 3 . 4 .    1 . 2 . 3 . 4 .    1 . 2 . 3 . 4 .
 
 
    
(9) 
    A       A#o        Bm      Bm/E       Bm      E7         A
 |----0-----0---0---|--0---------------|----------7-------|--0---------------|
 |----2-----2---2---|--3---3-3---------|----3-2-3---------|------0-----------|
 |----2-----3---3---|--2---2-2-------2-|--------------7---|--7-----6---------|
 |--------------2---|------4-------6---|------4-------6---|--7-----------2-3-|
 |--0---------------|--2---------------|--2-------7-------|----------0-4-----|
 |--------0---------|----------0-------|------------------|------------------|
	
	
 
    
(13)
    F#m     A          B7                 Bm      E          A       
 |------------------|------------------|------------------|----------------0-|
 |----2---------2---|--2---0-0---------|----0-------------|------------5-7---|
 |----2---------2---|--2---2-2---------|------------------|------------------|
 |--4---4---2---2---|--1---1-------1---|--7---7-6----s9-7-|------------------|
 |------------------|--------------2---|------------------|--0-------0-------|
 |------------------|----------2-------|--7-------0-------|------0-----------|
    1 . 2 . 3 . 4 .    1 . 2 . 3 . 4 .    1 . 2 . 3 . 4 .    1 . 2 . 3 . 4 .



 
    
(17)
    E7      A          D6      D#o        Em      A7         D6
 |------5---7-5-----|-s7---------------|------------------|------------------|
 |--8-----------8---|----7-------7-----|-s10--------8-----|--7---------------|
 |--9---8---7---6---|-s7---------------|------9-----6-----|--4-6---7---6-4---|
 |------------------|--0---7-------7---|--9---9-------7---|--4---------------|
 |--------0---------|----------6-------|--7---------------|--5---------------|
 |--0---------------|------------------|----------5-------|------------------|
    1 . 2 . 3 . 4 .    1 . 2 . 3 . 4 .    1 . 2 . 3 . 4 .    1 . 2 . 3 . 4 . 
(21)

    Dm      G7         C6      C#o        Dm      G7         E7sus   E7-5
 |----------5-3---5-|------------------|------------------|------------------|
 |--6---8-------6---|----5-------5-----|--8-------3-5-6-5-|------------------|
 |----------4-------|------------------|------7---4-------|----7-------7-----|
 |--7---------------|------5-------5---|------7-----------|------7-------6---|
 |--5---------------|--3-------4-------|--5---------------|------------------|
 |---------h3-------|------------------|----------3-------|--7-------6-------|
    1 . 2 . 3 . 4 .    1 . 2 . 3 . 4 .    1 . 2 . 3 . 4 .    1 . 2 . 3 . 4 . 
    1 . 2 . 3 . 4 .    1 . 2 . 3 . 4 .    1 . 2 . 3 . 4 .    1 . 2 . 3 . 4 . 

 
(25)

  A       A#o        Bm                    Bm      E7         G#m7b5   C#7
|-----12-----12----|-14--10-7-----------|----------7-------|------------------|
|-----10-----11----|-12--12-7-----------|----3-2-3---------|--3-----2---------|
|-----9------9-----|-11--11-7-------1-2-|--------------7---|----4-------4-----|
|-----11--------11-|-12-----------------|------4-------6---|------4-------3---|
|-0----------------|--------------------|--2-------7-------|----------4-------|
|---------0--------|--------------------|------------------|--4---------------|
  1 . 2 . 3  .  4 .  1 . 2  .  3 .  4 .    1 . 2 . 3 . 4 .    1 . 2 . 3 . 4 . 

 
(29)
    F#m9               B9       B7        Bm      E7         A       E+5
 |----------5---9---|--9-10-9-7--------|--7-9-7-10----4s5-|------------------|
 |----2---5-5---10--|--7---------------|--7---------------|------------------|
 |----2---6-6---9---|--8---------------|--7-----------5s6-|----------------5-|
 |----2---6---------|-------9-------9--|------------------|--------------6---|
 |------------------|------------------|----------7-------|--0---------7-----|
 |--2---------------|--7--------7------|--7---------------|----------0-------|
    1 . 2 . 3 . 4 .    1 .  2 . 3 . 4 .   1 . 2 . 3 . 4 .    1 . 2 . 3 . 4 . 
    

    
VERSE 2: ("Improvisation" on melody)
 
 
(33)
    A       A#o        Bm      E9         Bm      E9         Bm      C#7
|--------0-------0-|--------7---------|--------6-7-------|-/[3]\-0-----------|
|------------------|----0-------7---0-|----7-------7---0-|-0-2-3---2---------|
|--6-5-6---6-5-6---|--7---7-------7---|----7---------7---|-------------4-----|
|------------------|------4-------6---|----7-------------|---------------3---|
|--0---7-------7---|----------7-------|----------7-------|-----------4-------|
|----------6-------|--7---------------|--7---------------|-4-----------------|
   1 . 2 . 3 . 4 .    1 . 2 . 3 . 4 .    1 . 2 . 3 . 4 .   1 - - 2 . 3 . 4 . 
 
 
(37)
   F#m9               B7                 Bm      E7         C#m7
|----------------7-|--9-7-9-7---------|--7-9-7-10----12--|--9-------------8s|
|--2-------7-9-10--|------------------|------------------|------------------|
|--2-----6---------|--8---------------|--7---------------|------------------|
|--4-6-7-----------|------------------|------------------|--9---8---7---6---|
|------------------|------9-------9---|----------7-------|------------------|
|--2---------------|--7-------7-------|--7---7-------10--|--9---8---7---0---|

   1 . 2 . 3 . 4 .    1 . 2 . 3 . 4 .    1 . 2 . 3 . 4 .    1 . 2 . 3 . 4 . 
 
 
(41)
   A       A#o        Bm      E          Bm      E7           F#m7
|--9-5-----9-6-0---|--------7---------|------2-5-7-5--7--10|--12--------------|
|------5-----------|----0-------------|----3---------------|------------------|
|--------6-------6-|--7---7-----------|--------------------|------------------|
|------------------|------4-----------|------4--------0----|------------------|
|--0---7-------7---|----------7---1---|--2-------7---------|----------0-------|
|----------0-------|--7---------------|--------------------|--9---7-------4---|
   1 . 2 . 3 . 4 .    1 . 2 . 3 . 4 .    1 . 2 . 3 .  4  .    1 . 2 . 3 . 4 . 
 
 
(45)
    F#m     /[3]\        B                  Bm      E7         A       
|---12s9----7-9-7------|-----9-7---------|--7-9-7-10s---4-5-|----------x-5s4---|
|--------10------12-7--|---7-------------|------------------|----------x-------|
|------11---10--------6|-8---------------|--7---7-------5-6-|----------x-6s5---|
|----------------------|-----------------|------------------|------7---x-------|
|----------------------|-----9-------9---|----------7-------|--0-------x-------|
|-2.-------------------|-7-------7-------|--7---------------|------------------|
  1 .  2 .  3    .  4 .  1 . 2 . 3 . 4 .    1 . 2 . 3 . 4 .    1 . 2 . 3 . 4 . 
 

  
 
(49)
    Em      A7         D       D#o        Em      A7         D 
 |--3---5---3-2-0---|------------------|------------------|------------------|
 |----------------3-|----2-3-4---3-4-4s|--5-4-3-2---0-2-3-|------------------|
 |--4---4-----------|------------------|------------------|------------------|
 |------------------|--0---4-------4---|--5-4-3-2---0-2-4-|------------------|
 |----------0-2-3---|----------0-------|----------0-------|--5---0---5---x-0-|
 |--0---------------|------------------|--0---------------|------------------|
    1 . 2 . 3 . 4 .    1 . 2 . 3 . 4 .    1 . 2 . 3 . 4 .    1 . 2 . 3 . 4 . 
 
 
(53) 
    Dm                   C6      C#o        Dm      G7         E7sus   E7-5
 |-------/[3]\---------|---5-------------|----------------0-|------------------|
 |-------:---6-8-6-----|-----------5-----|-s8-------3-5-6---|----5-------5-----|
 |-/[3]\-2-7-------7-5-|-5---------------|------7-----------|----7-------------|
 |-----3---------------|-----5-------5---|------7-----------|------7-------6---|
 |-0-5-----------------|-3-------4-------|--5---------------|------------------|
 |---------------------|-----------------|----------3-------|--7-------6-------|
   1 - - 2 - - 3 . 4 .   1 . 2 . 3 . 4 .    1 . 2 . 3 . 4 .    1 . 2 . 3 . 4 . 
 
 
VERSE 3: (Recap melody)

(57) 

    A       A#o        Bm7     Bm/E       Bm      E7         G#m7b5   C#7
 |----0-----0---0---|--0---------------|----------7-------|------------------|
 |----2-----2---2---|--3---3-3---------|----3-2-3---------|--3-----2---------|
 |----2-----3---3---|--2---2-2-------2-|--------------7---|----4-------4-----|
 |--------------2---|------4-------6---|--------------6---|------4-------3---|
 |--0---------------|--2---------------|--2-------7-------|----------4-------|
 |--------0---------|----------0-------|--7---------------|--4---------------|
    1 . 2 . 3 . 4 .    1 . 2 . 3 . 4 .    1 . 2 . 3 . 4 .    1 . 2 . 3 . 4 . 
 
 
(61)
    F#m7    A          B9       B7        Bm9     E7         C#m      F#7
 |----------5---9---|--9-10-9-7--------|--7-9-7-----10----|--9-10-9-----12---|
 |----2---5-5---10--|--7---------------|------------9-----|--9----------11---|
 |----2---6-6---9---|--8---------------|--7---------9-----|--9----------9----|
 |----2---6---------|-------9-------9--|------7---9-------|-----------11-----|
 |------------------|------------------|------------------|---------9--------|
 |--2---------------|--7--------7------|--7-----0---------|--9---------------|
    1 . 2 . 3 . 4 .    1 .  2 . 3 . 4 .   1 . 2 . 3 . 4 .    1 .  2 . 3 . 4 . 
    

(65)                    [2/4]     [4/4]
   Bm      E                        A#maj7             A           A6
|--7-9-7---------/[3]\-|-0---4---|--5---------------|--5-----------0---|
|--7-------------:---0-|---------|--6---------------|--5-----------7---|
|--7-------------:-1---|---------|--7---------------|--6-----------6---|
|----------/[3]\-2-----|---------|------------------|--------------7---|
|----------:---2-------|---------|------------------|----------0---0---|
|--7-------0-4---------|---------|--6---------------|--5---0-2---------|
   1 . 2 . 3 - - 4 - -   1 . 2 .    1 . 2 . 3 . 4 .    1 . 2 . 3 . 4 . 
 
 




Important: The song above is NOT stored on the Chordie server. The original song is hosted at www.lindesign.se. Chordie works as a search engine and provides on-the-fly formatting. Chordie does not index songs against artists/composers will. To remove this song please click here.

This song is displayed as text-only. Transposing and tuning is only available for chordpro-songs.

Login - add to songbook

Rating click stars to rate

Layout
Accuracy

SHARE PAGE  

You need to log in to post comments