Guitar Tabs, Chords and Lyrics


Song for the asking   Simon & Garfunkel












NNTP-Posting-Host: lin014.agrlinc.cri.nz

Xref: unixg.ubc.ca rec.music.makers.guitar.acoustic:12442 rec.music.makers.guitar.tablature:33112
This came out garbled last time I sent it so here goes again...

Song For The Asking  - Simon And Garfunkel
~~~~~~~~~~~~~~~~~~~

Transcribed and tabbed by John Kean (keanj@agresearch.cri.nz).

Capo 2nd fret.
3/4 time (mostly)

  A                                             (no chord)
 3/4 . , . , .    , . , . , .    , . , . , .    4/4 . , . , . , .
||-----0---0----|-----0---0----|-----0---0----||-------------------|
||-----2---2----|-----2---2----|-----2---2----||-------------------|
||-----2---2----|-----2---2----|-----2---2----||*-----6-------4----|
||-----2---2----|-----2---2----|-----2---2----||*-----------0------|
||-0------------|-0------------|-0------------||--4s7---7s5--------|
||--------------|--------------|--------------||-------------------|
                                    E              D
  , . , . , . , .  3/4 . , . , .    , . , . , .    , . , . , .
|------------------|--------------|-----0---0----|-----2---2----|
|------------------|--------------|-----0---0----|-----3---3----|
|------------b5----|--------------|-----1---1----|-----2---2----|
|------------------|--------------|-----2---2----|-0------------|
|-7-------0--------|-0------------|--------------|--------------|
|-----7------------|-----4---2----|-0------------|--------------|
                     Here is my     song           for     the
                     This is my     tune           for     the

  F#m                           Bm                            C#
  , . , . , .    , . , . , .    , . , . , .    , . , . , .    , . , . , .
|-----2---2----|-----2---2----|--------------|--------------|--------------|
|-----2---2----|-----2---2----|-0---2---3----|-3---3---3----|-6---6---6----|
|-----2---2----|-----2---2----|--------------|-----4---4----|-----6---6----|
|-----4---4----|-----4---4----|-0---2---4----|-----4---4----|-----6---6----|
|--------------|--------------|--------------|-2------------|-4------------|
|-2------------|-2------------|--------------|--------------|--------------|
 asking                         Ask me  and    I       will   play
 taking                         Take it don't  turn    a-    -way

  C#7            D                             A
  , . , . , .    , . , . , .    , . , . , .    , . , . , .    , . , . , .
|--------------|-----2---2----|-2---0--------|--------------|--------------|
|-----6---6----|-----3---3----|---------3----|-2---0--------|-----2---2----|
|-----4---4----|-----2---2----|--------------|---------2----|-----2---2----|
|-----6---6----|-0------------|-0------------|-----0--------|-----2---2----|
|-4------------|--------------|-----4---2----|-0-------4----|-0------------|
|--------------|--------------|--------------|--------------|--------------|
  so             sweetly I'll                  make you smile
  I've    been   waiting                       all     my     life

                 (no chord)          A                       F#m
  , . , . , .   4/4 . , . , . , .  5/4 . , . , . , . , .   3/4 . , . , .
|--------------||------------------|-----------------------|-----2---2----|
|--------------||------------------|-------------2---------|-----2---2----|
|-----2-------*||-----6-------4----|-------------2---------|-----2---2----|
|-0h2---------*||-----------0------|-------------2---------|-----4---4----|
|---------4----||-4s7---7s5--------|-7-------0-------------|--------------|
|--------------||------------------|-----7-----------5p4p2-|-2------------|
                                                               Thinkin' it

                 C#m            C#             Bbdim
  , . , . , .    , . , . , .    , . , . , .    , . , . , .    , . , . , .
|-2---2---2----|-----4---4----|-----4---4----|-0---0---0----|-----0---0----|
|-2---2---2----|-----5---5----|-----6---6----|-2---2---2----|-----2---2----|
|-2---2---2----|-----6---6----|-----6---6----|-3---3---3----|-----3---3----|
|-4---4---4----|-----6---6----|-----6---6----|-2---2---2----|-----2---2----|
|-4------------|-4------------|-4------------|-1------------|-1------------|
|--------------|--------------|--------------|--------------|--------------|
  over I've been sad                             Thinkin' it  over I'd be

  Bm             E7             A              A7sus4         A
  , . , . , .    , . , . , .    , . , . , .    , . , . , .    , . , . , .
|-----0---2----|-0---0---0----|-0------------|--------------|--------------|
|-3------------|-----3---3----|-2-------2----|-3-------0----|-2---2---2----|
|-4------------|-----1---1----|-2---2---2----|-0---0---0----|-2---2---2----|
|-4-------0----|-2------------|-2---2---2----|-2---2---2----|-2---2---2----|
|-2---4--------|--------------|-0------------|-0------------|-0------------|
|--------------|--------------|--------------|--------------|--------------|
  more    than   glad    to     change my ways

  D              F#m                           Bm
  , . , . , .    , . , . , .    , . , . , .    , . , . , .    , . , . , .
|-----2---2----|-----2---2----|-----2---2----|--------------|--------------|
|-----3---3----|-----2---2----|-----2---2----|-0---2---3----|-3---3---3----|
|-----2---2----|-----2---2----|-----2---2----|--------------|-----4---4----|
|-0------------|-----4---4----|-----4---4----|-0---2---4----|-----4---4----|
|--------------|--------------|--------------|--------------|-2------------|
|--------------|-2------------|-2------------|--------------|--------------|
  for     the    asking                        Ask me  and    I       will

  C#             C#7            D                             A
  , . , . , .    , . , . , .    , . , . , .    , . , . , .    , . , . , .
|--------------|--------------|-----2---2----|-2---0--------|--------------|
|-----6---6----|-6---6---6----|-----3---3----|---------3----|-2---0--------|
|-----6---6----|-4---4---4----|-----2---2----|--------------|---------2----|
|-----6---6----|-6---6---6----|-0------------|-0------------|-----0--------|
|-4------------|-4------------|--------------|-----4---2----|-0-------4----|
|--------------|--------------|--------------|--------------|--------------|
  play           all     the    love that I                   hold inside

                               (no chord)          A
  , . , . , .    , . , . , .  4/4 . , . , . , .    , . , . , . , .
|--------------|--------------|------------------|-------------0----|
|-----2---2----|--------------|------------------|-------------2----|
|-----2---2----|-----2--------|-----6-------4----|-------------2----|
|-----2---2----|-0h2----------|-----------0------|-------------2----|
|-0------------|---------4----|-4s7---7s5--------|-7-------0--------|
|--------------|--------------|------------------|-----7------------|
                 E              D              F#m
3/4 . , . , .    , . , . , .    , . , . , .    , . , . , .    , . , . , .
|--------------|-----0---0----|-----2---2----|-----2---2----|-----2---2----|
|--------------|-----0---0----|-----3---3----|-----2---2----|-----2---2----|
|--------------|-----1---1----|-----2---2----|-----2---2----|-----2---2----|
|--------------|-----2---2----|-0------------|-----4---4----|-----4---4----|
|-0------------|--------------|--------------|--------------|--------------|
|-----4---2----|-0------------|--------------|-2------------|-2------------|
  Hmmm....

  Bm                            C#             C#7
  , . , . , .    , . , . , .    , . , . , .    , . , . , .
|--------------|--------------|--------------|--------------|
|-----3---3----|-----3---3----|-----6---6----|-----6---6----|
|-----4---4----|-----4---4----|-----6---6----|-----4---4----|
|-----4---4----|-----4---4----|-----6---6----|-----6---6----|
|-2------------|-2------------|-4------------|-4------------|
|--------------|--------------|--------------|--------------|

  D                             A
  , . , . , .    , . , . , .    , . , . , .    , . , . , .
|-2------------|-2---0--------|--------------|--------------|
|-3---3---3----|---------3----|-2---0--------|-----2---2----|
|-2---2---2----|--------------|---------2----|-----2---2----|
|-0------------|-0------------|-----0--------|-----2---2----|
|--------------|-----4---2----|-0-------4----|-0------------|
|--------------|--------------|--------------|--------------|

                (no chord)
  , . , . , .  4/4 . , . , . , .    , . , . , . , .
|--------------|------------------|------------------||
|--------------|------------------|------------------||
|-----2--------|-----6-------4----|------------b5----|| Fine.
|-0h2----------|-----------0------|------------------||
|---------4----|-4s7---7s5--------|-7-------0--------||
|--------------|------------------|-----7------------||

   \\\\   John Kean
   OO |   ~~~~~~~~~
   <  )   (keanj@agresearch.cri.nz)
   \/ | 
   `-
                        


Important: The song above is NOT stored on the Chordie server. The original song is hosted at www.lindesign.se. Chordie works as a search engine and provides on-the-fly formatting. Chordie does not index songs against artists'/composers' will. To remove this song please click here.

This song is displayed as text-only. Transposing and tuning is only available for chordpro-songs.

Login - add to songbook

Rating click stars to rate

Layout
Accuracy

SHARE PAGE  




You need to log in to post comments