Guitar Tabs, Chords and Lyrics


Silent night   Traditional




Xref: undergrad.math.uwaterloo.ca rec.music.makers.guitar.tablature:17368








NNTP-Posting-Host: hebron.connected.com

A unique version of Silent Night, as  arranged by Rick Ruskin.

                                                 P
e|---------------|-0---------------|--0--------2--0----|----------------|
B|-----------2---|------------2----|-------------------|-2--------------|
G|------2------2-|------2-------2--|-------2---------2-|---------2------|
D|----2---2------|----2----2-------|-----2-------------|-------2---2----|
A|--0------------|-----------------|--0----------------|----0-----------|
E|---------------|-0---------------|-------------------|-0------------0-|

               P
e|--0--------2--0-----|-------------------|-7--------7--------|-4--5---7---|
B|--------------------|-2-----------------|--------------5\5--|----7---9---|
G|--------2---------2-|-----------2-------|-------7-----------|------------|
D|-----2--------------|--------2-----2----|----6--------------|------------|
A|--0-----------------|-----0-----------0-|-------------------|------------|
E|--------------------|-0-----------------|-0-----------------|-0----------|

                                                      S

e|-5--------5-------|-0---------------|-2-----------------|-5--4---2----|
B|-------------7----|----------0------|-3-----------3-\-7-|----5---3----|
G|----------------7-|-------6-----2---|----------2--------|-------------|
D|-------7----------|----7----------2-|-0-----0-----------|-------------|
A|----0-------------|-0---------------|----0--------------|-------------|
E|-0----------------|-----------------|-------------------|-0---------2-|

         P                                  S               S             P
e|-0---2--0---|----------------|-2-------2------|---5---4-\-2----|-0--2-\2---
B|-2---3--2---|-2--------------|-3-------3-\-7--|-------5-\-3----|-2--3-\3---
G|------------|-2---------2----|----------------|----------------|-----------
D|------------|--------2-------|-0-------0------|---0------------|-----------
A|-0----------|-0---4--------0-|------0------0--|----------------|-0---------
E|----------0-|----------------|----------------|--------------2-|---------2-

              S                       S         S
e|----------------0-|-7--------7------|-10------------|----5---0----------|
B|-2----------------|--------------5--|\11---12-\-9---|-------------------|
G|-2------2--4\6----|-------7---------|---------------|----6---2----------|
D|-----4------------|----6------------|------12-\-9---|-------------------|
A|-0----------------|-----------------|---------------|----0------------0-|
E|------------------|-0---------------|--0------------|-----------0--2----|

              S
e|--9-------|--5--------------|-0-----------------|----------------|
B|----------|-------5---------|--------3-----0----|----------------|
G|--9-------|-\6---------6----|-1-----------------|-2---------2----|
D|--7-------|-----------------|-------------------|-------2------2-|
A|----------|--0--------------|-------------------|-0--------------|
E|----------|-----------------|-0-----------------|----------------|

               P                                     P
e|--0-------{2--0----|-----------------|--0-------{2--0----|------------------|

B|--2-------{3--2----|-2--------2------|--2-------{3--2----|-2--------2-------|

G|-------{2----------|------{2----2----|-------{2----------|------{2-----2----|

D|-----2-------------|----2---------2--|-----2-------------|----2-----------2-|

A|--0----------------|-0---------------|--0----------------|-0----------------|

E|-----------------0-|-----------------|-----------------0-|------------------|
                                         P        H
e|-----7------7------|-4----0--------|-5--------5-------|-0--------------|
B|---------------5\5-|---5-----0-----|-3--2-----2--3----|-2-----2--------|
G|----------7--------|---------------|-------4--------4-|----4-----2-----|
D|--------6----------|-----------1---|-0----------------|----------------|
A|-------------------|-------------2-|------------------|-0--------------|
E|-----0-------------|-0-------------|------------------|----------------|

                                            S      S              P
e|-0-------------|-2---------{2--{2----|-----5---4-\-2-----|-0--2--0------|
B|-2------2------|-3-----{3------{3----|----\7---5-\-3-----|-2--3--2------|
G|----4------2---|----2----------------|-------------------|--------------|
D|---------------|-0-------------------|-----0-------------|--------------|
A|-0-------------|-------------------0-|-------------------|-0------------|
E|---------------|---------------------|----------------2--|-----------0--|
                                     S       S                 P
e|------------|-2---------{2--{2---|--5----4-\-2-----|---0---2--0-----|
B|-2----------|-3-----{3------{3---|-\7----5-\-3-----|---2---3--2-----|
G|-2--4---2---|----2---------------|-----------------|----------------|
D|----4---2---|--------------------|--0--------------|----------------|
A|-0----------|-0----------------0-|-----------------|---0------------|
E|------------|--------------------|--------------2--|-------------0--|
                                 S        S                          S
e|------------|-7---------7-----|-10---------------|-5-----7-----|---\9---|
B|-2------2---|--------------5--|------12-\-9------|-------------|--------|
G|-2--4---2---|-------7---------|\11---------------|-6-----7-----|---\9---|
D|----4-------|----6------------|------12-\-9------|-------------|--------|
A|-0----------|-----------------|------------------|-0-----------|----0---|
E|------------|-0---------------|-0------------0---|-----------0-|--------|
   S                                       H
e|--5---0--------|--0-------------|-----------------|---------------------|
B|----------2----|--------3---0---|-----------------|--------------2------|
G|-\6---2--------|--1-------------|-2------------2--|-------2----------2--|
D|----------2----|--------4---0---|-------2--4------|----2-----2----------|
A|--0------------|----------------|-0---------------|-0-------------------|
E|---------------|--0-------------|-----------------|---------------------|

e|---------------------------|-------|
B|-------------------2-------|-------|
G|-----2-----2----------2----|-------|
D|--------2-----2------------|-------|
A|-----0---------------------|--0----|
E|---------------------------|-------|
*Arrangement copywright 1992 by Rick Ruskin

So you better ask him before you play this for money.


Important: The song above is NOT stored on the Chordie server. The original song is hosted at www.lindesign.se. Chordie works as a search engine and provides on-the-fly formatting. Chordie does not index songs against artists/composers will. To remove this song please click here.

This song is displayed as text-only. Transposing and tuning is only available for chordpro-songs.

Login - add to songbook

Rating click stars to rate

Layout
Accuracy

SHARE PAGE  




You need to log in to post comments