God only knows

Beach Boys





 AEAEAE/G#F#m7
                                                                                                                                                    winds arr. for gtr:
v v v v
	|-----------------|
	|-2------24-5-----|
	|-2------24-5-----|
	|-----------------|
	|-----------------|
	|-----------------|

bass:
v v v v
	|-----------------|
	|-----------------|
	|-----------------|
	|-0-----02-3------|

verse 1:
 D/ABm6
        I may not always love you
 F#mF#m7F#m6/A
        But long as there are stars above you
 E/BCdim
        You never need to doubt it
 E/BA#m7-5
        I'll make you so sure about it
 AE/G#F#m7E
        God only knows what I'd be without you 
bass (doubled w/piano):
v v v v
	|-----------------|
	|-----------------|
	|-----------------|
	|-0-----02-3------|

verse 2:
If you should ever leave me
Though life would still go on believe me
The world could show nothing to me
So what good would living do me
God only knows what I'd be without you
bridge:
winds/keyboard arr. for gtr:
v v v v v v v v
	|-----9-----5---9-|-7-----6---------|
	|-5--10-----5--10-|-8-----5-8-6-5-3-|
	|-6---------------|---------9-7-6-4-|   [2X]
	|-----------------|-----------------|
	|-----------------|-----------------|
	|-----------------|-----------------|

bass:
v v v v v v v v
	|-----------------|-------------0-2-|
	|-2---2-----4---2-|-5-------0-2-----|   [2X]
	|-----------------|-------3---------|
	|-----------------|-----------------|

 G/DEm6Bm/F#Bm7E7/DA/EFdimA/ED#m7-5DA/C#Bm
                                                                                                                                                         God only knows what I'd be without you
(repeat verse 2)
outro:
 AE/G#F#m7E/G#
        God only knows what I'd be without you       (repeat to fade)
-- another ace 60's tab from Andrew Rogers