Guitar Tabs, Chords and Lyrics


Maestro   Beastie Boys













Summary: Beastie Jams BOYYYeeeeeeeeee
Distribution: world


This is a repost of some Beastie Boys stuff that I put in here a little while
ago.  I decided to repost it becasue a couple people have asked for it.
                 Beastie Boys     "The Maestro"
  
------------------------------------------------------------------------------
-------------------------------------------------------------------------------
-------------------------------------------------------------------------------
---------------------------3---------------------------------------------------
-----------3--5--5-----3------5------------------------repeat------------------
--------3-----------3----------------------------------------------------------


-------------------------------------------------------------------------------
-------------------------------------------------------------------------------
-------------------------------------------------------------------------------
-------------------------------------------------------------------------------
-------------------------------------------------------------------------------
----3--3--x--x--3--x-x-x--4----------------------------------------------------

x=hitting string while mutted to get a percussive effect.


                   Beastie Boys     "Time for Livin'"

-------------------------------------------------------------------------------
-------------------------------------------------------------------------------
-------------------------------------------------------------------------------
--------9--9------9-9-9-9------------------------------------------------------
--------7--7------7-7-7-7-----5-5----5-5-5-5-------7-7---7-7-7-7---------------
------------------------------3-3----3-3-3-3-------5-5---5-5-5-5---------------

------------------------------------------------------------------------------
------------------------------------------------------------------------------
------------------------------------------------------------------------------
------------------------------------------------------------------------------
--7-7-7-7-7-7----------------------------------------------------------------
--5-5-5-5-5-5------repeat-----------------------------------------------------

------------------------------------------------------------------------------
------------------------------------------------------------------------------
------------------------------------------------------------------------------
--------------------9---------------------------------------------------------
---7---7-7-7-7---9--7--9-----5--2-2--5--5-5---2-2---5-5----------------------
---5---5-5-5-5---7-----7-----3--0-0--3--3-3---0-0---3-3----------------------
....time for livin'   time for livin'...........
------------------------------------------------------------------------------
------------------------------------------------------------------------------
-------------------------------------------------------------------------------
-------------------------------------------------------------------------------
----5----8----------5-----8----------------------------------------------------
----3----6----------3-----6----------------------------------------------------

--the middle part is the same as the intro only slower.


So long Kurt......you'll be missed.



Important: The song above is NOT stored on the Chordie server. The original song is hosted at www.lindesign.se. Chordie works as a search engine and provides on-the-fly formatting. Chordie does not index songs against artists'/composers' will. To remove this song please click here.

This song is displayed as text-only. Transposing and tuning is only available for chordpro-songs.

Login - add to songbook

Rating click stars to rate

Layout
Accuracy

SHARE PAGE  




You need to log in to post comments