Back in the ussr

Beatles



 EE7AD
         Flew in from Miami Beach B. O. A. C.
 CD
Didn't get to bed last night
 AD
 On the way the paperback was on my knee
 CD
Man I had a dreadful flight
 A
I'm back in the U.S.S.R.
 CD
 You don't know how lucky you are boy
 ADEbE
Back in the U.S.S.R.   
 AD
Been away so long I hardly knew the place
 CD
Gee it's good to be back home
 AD
Leave it till tomorrow to unpack my case
 CD
Honey disconnect the phone
 A
I'm back in the U.S.S.R.
 CD
 You don't know how lucky you are boy
 Gadd9
 Back in the U.S.
Back in the U.S.
 A
Back in the U.S.S.R.
 D
Well the Ukraine girls really knock me out
 A
They leave the West behind
 DD/C#D/CD/B
And Moscow girls make me sing and shout
 EDADEbE
That Geogia's always on my mi mi mi mi mi mi mind         (Oh come on!)
(solo)
 AD
|---------------------------------------------------------------------------|
|15-------15--15-------15--15-------15--15-------15--15------15------15-----|
|17b(19)-(19)-17b(19)-(19)-17b(19)-(19)-17b(19)-(19)-17b(19)-17b(19)-17b(19)|
|---------------------------------------------------------------------------|
|---------------------------------------------------------------------------|
|---------------------------------------------------------------------------|

 CDAD
|---------------------------------------------------------------------------|
|---------15--15b(17)b15----------------------------------------------------|
|-17--17------------------17--14--14-----15-b(19)17-b(19)17-b(19)17-b(19)17-|
|---------------------------------------------------------------------------|
|---------------------------------------------------------------------------|
|---------------------------------------------------------------------------|

 CD
|-------------------------------------|
|---------15--15b(17)b15--------------|
|-17--17------------------17--14--14--|
|-------------------------------------|
|-------------------------------------|
|-------------------------------------|

 A
I'm back in the U.S.S.R.
 CD
You don't know how lucky you are boy
 A
Back in the U.S.S.R.
 D
Well the Ukraine girls really knock me out
 A
They leave the West behind
 DD/C#D/CD/B
And Moscow girls make me sing and shout
 EDADEbE
That Geogia's always on my mi mi mi mi mi mi mind   
 AD
Oh, show me 'round your snow-peaked mountains way down south
 CD
Take me to your daddy's farm
 AD
Let me hear your balalaikais ringing out
 CD
Come and keep your comrade warm
 A
I'm back in the U.S.S.R.
 CD
You don't know how lucky you are boy
 ADEbEA
Back in the U.S.S.R.    
 Gadd9-5--3--3--4--5-
                                                                      -x-
 -3-
            transcribed by Chris Sears
cts@mail.utexas.edu
Date: 12 Mar 1993 14:23:06 -0700 (MST)
From: Paul Zimmerman
Subject: CRD: Back in the USSR - Beatles
BACK IN THE USSR
The Beatles
riff:
|--------------------------------------------
|--------------------------------------------
|---------------------------7--5-------------
|--------------7--5---------------8--5-------
|-7--5---------------8--5--------------------
|-------8--5---------------------------------

 ADCD
  Flew in from Miami Beach B.O.A.C., didn't get to bed last night
 ADCD
On the way a paper bag was on my knee, man I had a dreadful flight
CHORUS
D A (or play riff starting here, going over next line)
I'm back in the USSR
 CD
  You don't know how lucky you are, boy
 DADEbE
  Back in the USSR    
-------------------------------------------------

 2-----D/EG/E
         Back in the US, back in the US, back in the USSR
-------------------------------------------------

BRIDGE
 AD
                 Well the Ukraine girls really knock me out
 A
They leave the west behind
 DF#m/C#Am/CB7
And Moscow girls make me sing and shout 
 E7D7A
That Georgia's always on my-mi-mi-mi-mi-mi-mi-mi-mi-mind

Been away so long I hardly knew the place,
Gee it's good to be back home
Leave it till tomorrow to unpack my case,
Honey disconnect the phone
Show me round your snow peaked mountains way down south,
take me to your daddy's farm
Let me hear you balalaikas ringing out,
come and keep your comrade warm
Eb xx5343
F#m/C# x44111
B7 x21202
D/E 000232
G/E 020003
Peace, love, and soul,
Paul Zimmerman


A Am/C B7 C D D/B D/C D/C# D/E D7 E E7 Eb F#m/C# G/E Gadd9
variations - click chord images
Transpose chords:
Tuning:
Cool service:
View: Size:
A  A  A
Rating:
Layout:
  • Currently 3/5 Stars.
  • 1
  • 2
  • 3
  • 4
  • 5
 
Accuracy:
  • Currently 2.5/5 Stars.
  • 1
  • 2
  • 3
  • 4
  • 5
 
click stars to rate
Chordie recommends:
Check out these online guitar lessons
Songbook:
Login to add this song to your songbook
Support the artist
Preview/buy this song
MSN Music
Why this non-profit ad?

 
login to add comments/video/corrections